Login or Register to remove this ad. | Advertise Here

Prologue (Castlevania: Symphony of the Night) Guitar Tab

Submitted: Jan 05, 2008 by archard (Last updated: May 07, 2008)

3.166665
Average: 3.2 (6 votes)
Download | Listen
Game: Castlevania: Symphony of the Night
Composer(s): Michiru Yamane
Style: Transcription
Series: Castlevania

AutoScroll: Slow | Medium | Fast
Prologue
Castlevania: Symphony of the Night
Composed by Michiru Yamane
Tabbed by Richard Schaefer (richard@gametabs.net)
1/5/08


     E.  E.   Q    E  S  S S  S    W                 
E||-----------------------------|-------------------|
B||-----------------------------|-------------------|
G||-----------------------------|-------------------|
D||-----------------------------|-------------------|
A||----------------7------------|-------------------|
E||--7---9---10-------9-10-9-10-|--7----------------|


    E.   E.   E   H           E.   E.   E   H           E.   E.   E   H         
|--------------------------|-------------------------|-------------------------|
|--------------------------|-------------------------|-------------------------|
|*-------------------------|-------------------------|-----------12---L--------|
|*--9---11---12---L--------|--9---11-----------------|--9---12-----------------|
|--------------------------|-----------12---L--------|-------------------------|
|--------------------------|-------------------------|-------------------------|


   E.   E.   E   H           H        H           H         H         
------------14---L--------|--------------------|---------------------|
--------------------------|--------------------|---------------------|
--11----------------------|--4--------6--------|--7--------11--------|
-------12-----------------|--4--------6--------|--7--------11--------|
--------------------------|--2--------4--------|--5---------9--------|
--------------------------|--------------------|---------------------|


  H        H           H         H           E.   E.   E   H         
--------------------|---------------------|-------------------------|
--------------------|---------------------|-------------------------|
--4--------6--------|--7--------11--------|-------------------------|
--4--------6--------|--7--------11--------|--9---11---12---L--------|
--2--------4--------|--5---------9--------|-------------------------|
--------------------|---------------------|-------------------------|


  E.   E.   E   H           E.   E.   E   H            E.   E.   E    H         
-------------------------|-------------------------|------------14~---L--------|
-------------------------|-------------------------|---------------------------|
-------------------------|-----------12---L--------|--11-----------------------|
--9---11-----------------|--9---12-----------------|-------12------------------|
-----------12---L--------|-------------------------|---------------------------|
-------------------------|-------------------------|---------------------------|


  H        H           H         H           H        H         
--------------------|---------------------|--------------------|
--------------------|---------------------|--------------------|
--4--------6--------|--7--------12--------|--4--------6--------|
--4--------6--------|--7--------12--------|--4--------6--------|
--2--------4--------|--5--------10--------|--2--------4--------|
--------------------|---------------------|--------------------|


  H         Q    Q       
-----------------------||
-----------------------||
--7--------12---------*||
--7--------12---------*||
--5--------10----------||
-----------------------||




Duration Legend
---------------
W - whole
H - half
Q - quarter
E - 8th
S - 16th
T - 32nd
X - 64th
. - note dotted
|-n-|  - n-tuplets


Tablature Legend
----------------
L - tied note

4 comments on Prologue

perfect !!!

5

perfect !!!

OMG PERFECT !!!!!!!!!!!!!!

5

OMG PERFECT !!!!!!!!!!!!!! exactly what i was looking for!!!!! Plus i even learned it before dinner wow this is great!!!!!!!!!!

Yay Perfect!

Yay Perfect!

Couple of flaws, but pretty good.

4

E. E. Q E E E W
E||-----------------------------|-------------------|
B||-----------------------------|-------------------|
G||-----------------------------|-------------------|
D||-----------------------------|-------------------|
A||----------------7------------|-------------------|
E||--7---9---10-------10---9----|--7----------------|

The first measure should look like this. I don't know where the 9-10-9-10 came from, but it doesn't sound right.

E. E. E H
------------14---L--------|
--------------------------|
---9----------------------|
-------11-----------------|
--------------------------|
--------------------------|

Sixth measure. I tried playing the 11-12, and that was just plain wrong.

Other than that, well done. 4/5.