Login or Register to remove this ad. | Advertise Here

Love Theme (Metal Gear Solid 4) Guitar Tab

Submitted: Jul 10, 2008 by blank (Last updated: Dec 21, 2009)

5
Average: 5 (14 votes)
Download | Listen
Game: Metal Gear Solid 4
Composer(s): Harry Gregson-Williams, Nobuko Toda
Style: Transcription

AutoScroll: Slow | Medium | Fast
Metal Gear Solid IV - Love Theme
Released - (PS3) June 12th, 2008
Composer(s) -Nobukuo Toda, (Sung by) Jackie Presti


Tuning - Standard (EADGBe)
There are a few ways to go about the picking.
Just listen to the song and you'll get a feel for the
rythm and where to place the vibrato.



|-0-|
|-1-|
|-2-|
|-2-|
|-0-|
|---|

|------------------|--------------------------------------------|
|-5-5-3-6-3-5------|-5h6p5--------------------------------------|
|------------------|-------7-5-4h5p4----4-------4-----4---------|
|--------------7---|------------------7-------7-----7---7-------|
|------------------|------------------------0-----0-------0-----|
|------------------|--------------------------------------------|

|--------------------------------------------------------------------0----|
|------------------------------------------3--1p0--------1-------------1--|
|-4-5-7-------7-----------7-----5-4------2-------------2---2-------2------|
|-----------7---7-------7---7----------2-------------2-------2---2--------|
|---------5-------5---5--------------0-------------0-----------0----------|
|-------5-----------5-----------------------------------------------------|

|-----------------------------|-----------------------------------------------|
|-----------------------------|-----------------------------------------------|
|-------------0---------------|-------------1------------9---9---9h10p9----9--|
|---2-3-2-3-2---2-3-2---------|---2-3-2-3-2---2-3-2---------------------12----|
|-0---------------------------|-0--------------------------0------------------|
|--------------------------x2-|-----------------------------------------------|

|-----------------------------------------------------------------------------|
|-----------------------------------------------------------------------------|
|-10-12-12---9-9-9-----9--------9h10p9----------------------------------------|
|--------------------7-----7-----------12-10-9h10p9----9----9----9----9-------|
|------------------0-----0--------------------------10----0----0----0---------|
|-----------------------------------------------------------------------------|

|-----------------------------------------------------------------------------|
|-----------------------------------------------------------------------------|
|-----------------------------------------------------------------------------|
|-9-10-12-12-----12---12---12---12p10p9-9-9-----9---9---9-----9h10p9-7-7------|
|--------------0----0----0--------------------0---0---0---0-------------------|
|-----------------------------------------------------------------------------|

|---------------------------------------------|
|------------------0------0---0-----1---------|
|-----2---2----2--------------------2---------|
|---2---2----2---2----2-3---3---3---2---------|
|-0---------------------------------0---------|
|------------------------------------------x2-|

6 comments on Love Theme

Kick Ass

5

Kick Ass

love this its great, ive

5

love this its great, ive been working on this getting the technique down all night, if i can find my eyetoy i think im going to post this as a recording if thats ok

(i do have to disagree on the style listing though, shouldnt it be acoustic? especially intended for spanish?)

sounds great. thanks so much

5

sounds great. thanks so much for posting this; loved the entire soundtrack for this game

Is song is beautiful!

5

Is song is beautiful!

Very well done tab. I love

5

Very well done tab. I love you. Great job.

Very nicely done. Gimme a

Very nicely done. Gimme a kiss