Login or Register to remove this ad. | Advertise Here

Nephilim (Xenosaga) Guitar Tab

Submitted: Oct 02, 2007 by ronito (Last updated: Sep 19, 2009)

5
Average: 5 (3 votes)
Download | Listen
Game: Xenosaga
Composer(s): Yasunori Mitsuda
Style: Arrangement, Fingerstyle
Series: Xeno

AutoScroll: Slow | Medium | Fast
6= D
     Q    Q    Q       E  E  E  E  E  E     E  E  E  E  E  E
E||------------5----|--1-----1-----1-----|--1-----0-----0-----|
B||-----------------|--------------------|--------------------|
G||-----------------|--------------------|--------------------|
D||-----------------|--------0-----3-----|-----------2--------|
A||-----------------|-----0-----0-----0--|-----1--4-----4--1--|
D||-----------------|--0-----------------|--0-----------------|

  E  E  E  E  E  E     E  E  E  E  E  E     E  E  E  E  E  E
--0-----------0--1--|--------------------|--------------------|
-----3--2--3--------|--0-----0-----0-----|--0-----------2--0--|
--------------------|--------------------|-----2--1--2--------|
--------0-----3-----|--------0--2--0-----|--------------------|
-----0-----0-----0--|--------------------|--0-----------------|
--0-----------------|--0--6-----------6--|--4-----------------|

  Q    Q    Q       E  E  E  E  E  E     H        E  E     E  E  E  E  E  E
--0--------------|-----5-----2--------|--------------4--|--5--4--2--0--2--9--|
-------3---------|-----------------2--|-----------------|--------------------|
------------1----|--2-----2-----2-----|--2--------L-----|--------------------|
------------0----|--------4-----4-----|--4--------L-----|--------------------|
--0--------------|--------------------|-----------------|--0-----------------|
-------6---------|--------------------|--4--------------|--------------0-----|

  E  E  E  E  E  E     E  E  E  E  E  E     E  E   E  E  E  E
--7-----4--------5--|--5--4--2--0--2--9--|--7-----12-----5-----|
--------------------|--------------------|---------------------|
--------------------|--------------------|---------------------|
--------0-----2-----|--0-----------------|---------0-----0-----|
-----0-----0--------|--0-----------------|-----0------0-----0--|
--0-----------------|--------------0-----|--0------------------|

  E  E  E  E  E  E     E  E  E  E  E  E     E  E  E  E  E  E
--4-----9-----------|--------------------|--5--4--2--0--2--9--|
--5-----0-----------|--------0-----2-----|--------------------|
--6-----9-----6-----|--------------------|--------------------|
-----------------2--|-----2-----2-----2--|--0-----------------|
--0--7-----7--------|--0-----------------|--0-----------------|
--------------------|--------------------|--------------0-----|

  E  E  E  E  E  E     E  E  E  E  E  E     E  E   E  E  E  E
--7-----4--------5--|--5--4--2--0--2--9--|--7-----12-----5-----|
--------------------|--------------------|---------------------|
--------------------|--------------------|---------------------|
--------0-----2-----|--------------------|---------0-----2-----|
-----0-----0--------|--0-----------------|-----0------0-----0--|
--0-----------------|--------------0-----|--0------------------|

                                               |-3-| |-6-| |-6-| |---7---| 7 7
  E  E  E  E  E  E     E  E  E  E  E  E     E  S S S S S S S S S S S S S S S T
--4-----9-----------|-----------7--5--7--|--4--3-2-1-0-------------------------|
--5-----0-----------|--------0-----------|-------------4-3-2-1-0---------------|
--6-----9-----6-----|--------------6-----|-----------------------3-2-1-0-------|
-----------------2--|-----3-----3-----3--|--2----------------------------4-3---|
--0--7-----7--------|--0-----------------|--0----------------------------------|
--------------------|--------------------|-------------------------------------|

  E  E  E  E  E  E     E  E  E  E  E  E     E  E  E  E  E  E
--------------------|-----------------0--|--4--2--7--4--0--4--|
--------------3-----|--2-----------0-----|--------------0--2--|
--------------------|--------1--2--------|-----------2--------|
--2-----------------|-----4--------------|--------6-----------|
--0-----2-----2-----|--0-----------------|-----4--------------|
-----4-----4-----4--|--4-----------------|--4-----------------|

  E  E  E  E  E  E     E  E  E  E  E  E     E  E  E  E  E  E
--5-----4--------0--|--5-----4--------0--|--7-----5-----4-----|
--------------------|--------------------|--------------------|
--------------------|--------------------|--------------1-----|
--------0-----2-----|--------0-----2-----|--------4-----------|
-----0-----0-----0--|-----0-----0-----0--|-----4-----4-----4--|
--0-----------------|--0-----------------|--4-----------------|

  E  E  E  E  E  E     E  E  E  E  E  E     E  E  E  E  E  E
--0-----------2-----|--5-----4--------0--|--5-----4--------0--|
--------2-----------|--------------------|--------------------|
--------1-----------|--------------------|--------------------|
--------------4-----|--------0-----2-----|--------0-----2-----|
-----4-----4-----4--|-----0-----0-----0--|-----0-----0-----0--|
--4-----------------|--0-----------------|--0-----------------|

  E  E  E  E  E  E     E  E  E  E  E  E     Q.     S S S S S S
--5-----4-----9-----|--4-----2-----7-----|--2----------------1-|
--------------9-----|-----------0-----0--|---------------1-4---|
-----------6-----6--|--------------6-----|--2--------1-2-------|
--------4-----------|--------2-----------|--4------4-----------|
-----4--------------|-----2--------------|---------------------|
--4-----------------|--2-----------------|---------------------|

  E  E  E  E  E  E     H        E  E     E  E  E  E  E  E
--2-----4-----5-----|--4--------L--2--|--1-----------1--5--|
--------------------|--2--------L-----|-----------1--------|
--------------------|-----------------|--------2-----------|
--------------------|-----------------|--------------------|
-----3-----3-----3--|-----------------|-----3--------------|
--------------------|--6--------------|--3-----------------|

  E  E  E  E  E  E     E  E  E  E  E  E     E  E  E  E  E  E
--1-----1-----1-----|--1-----0-----0-----|--0-----------0--1--|
--------------------|--------------------|-----3--2--3--------|
--------------------|--------------------|--------------------|
--------0-----3-----|-----------2--------|--------0-----3-----|
-----0-----0-----0--|-----1--4-----4--1--|-----0-----0-----0--|
--0-----------------|--0-----------------|--0-----------------|

  E  E  E  E  E  E     E  E  E  E  E  E     Q    Q    Q
--------------------|--------------------|--0--------------|
--0-----0-----0-----|--0-----------2--0--|-------3---------|
--------------------|-----2--1--2--------|------------1----|
--------0--2--0-----|--------------------|------------0----|
--------------------|--0-----------------|--0--------------|
--0--6-----------6--|--4-----------------|-------6---------|

  E  E  E  E  E  E     H        E  E       E  E  E  E  E  E
-----5-----2--------|-----------------||---------------------|
-----------------2--|-----------------||------------------2--|
--2-----2-----2-----|--2--------L--1--||*--2--1--------------|
--------4-----4-----|--4--------L-----||*--------4--2--4-----|
--------------------|-----------------||---0-----------------|
--------------------|--4--------------||---------------------|

  E  E  E  E  E  E     E  E  E  E  E  E     E  E  E  E  E  E
--------------------|--------------------|--------0-----------|
--0-----------------|-----------------2--|--0-----------------|
--------1--------2--|--2--1--------------|--------------2-----|
--------0-----2-----|--2-----4--2--4-----|--------0-----0-----|
-----0-----0--------|--------------------|-----0-----0-----0--|
--0-----------------|--0-----------------|--0-----------------|

  Q    H             E  E  E  E  E  E     Q    Q    Q
-----------------||--------------------|-----------------|
-------2---------||--------0-----------|-------0----3----|
--1----1--------*||--------------1-----|--1--------------|
--2-------------*||-----4-----2--------|--0----4---------|
--4--------------||--0-----------4-----|--2--------------|
-----------------||-----------------2--|-----------------|

    E  E  E  E  E  E       H.
|---0-----0--2--0------||---------------||
|---0--3-----------3---||--3------------||
|*--------------------*||---------------||
|*--4-----------------*||--0------------||
|---2------------------||--0------------||
|----------------------||--6------------||

Duration Legend
---------------
W - whole
H - half
Q - quarter
E - 8th
S - 16th
T - 32nd
X - 64th
. - note dotted
|-n-|  - n-tuplets

3 comments on Nephilim

Really nice tab.. awesome job

Really nice tab.. awesome job man. I love it!

I recognized some

5

I recognized some inconvenient fingering positions in this but beside that it's perfect. I especially love the middle section!

Wow, this might be one of my

5

Wow, this might be one of my favorite tabs on the site. Excellent job.