Login or Register to remove this ad. | Advertise Here

Dan Don Fuga (We Love Katamari) Guitar Tab

Submitted: Oct 02, 2007 by Kabukibear (Last updated: Feb 28, 2010)

4.75
Average: 4.8 (4 votes)
Download | Listen
Game: We Love Katamari
Composer(s): Yu Miyake
Style: 2 or more instruments, Arrangement, Fingerstyle

AutoScroll: Slow | Medium | Fast
Dan Don Fuga
~We Love Katamari~
Composed By: Yu Miyake
Arranged By: Justin Lincoln

Guitar 1

     W                   W                   H        Q    Q
E||-------------------|-------------------|-----------3---------|
B||-------------------|-------------------|----------------1----|
G||-------------------|-------------------|---------------------|
D||-------------------|-------------------|---------------------|
A||-------------------|-------------------|---------------------|
E||-------------------|-------------------|---------------------|

  E  E  E  E  E  E  E  E     E  E  E  S S E  E  E  E     Q    E  E  Q.     E
-----0--------------------|---------------------------|--0-------0--1---------|
--L-----3--1--0-----0-----|--1--1--1--3-1-0--1--3--0--|--------------------3--|
-----------------2-----0--|---------------------------|-----------------------|
--------------------------|---------------------------|-----------------------|
--------------------------|---------------------------|-----------------------|
--------------------------|---------------------------|-----------------------|

  S S E  S S S S E  E  E  T T T T    Q    E  E  E  E  Q
-------------0--------------------|------------------------|
--1-0-1--L-3---1-3--------1-0---0-|--1-------3--1--0-------|
--------------------2--L------2---|-------------------2----|
----------------------------------|------------------------|
----------------------------------|------------------------|
----------------------------------|------------------------|

  E  E  Q    E  E  E  E     Q    E  E  H           Q    Q.     E  E  E
--------1----L--3--1--0--|-------0--1--0--------|--5----0------1--0-----|
-----1-------------------|--3-------------------|--------------------3--|
--L----------------------|----------------------|-----------------------|
-------------------------|----------------------|-----------------------|
-------------------------|----------------------|-----------------------|
-------------------------|----------------------|-----------------------|

  E  E  E  E  E  E  E  S S    E  E  E  E  E  E  Q       Q    E  E  Q    Q
-----------------------0---|-------------------------|-----------------------|
--1--0--1-----3--3--3----3-|--1--3--1--0-------------|-----------------------|
-----------2---------------|--------------2--1--2----|--L----0-----0---------|
---------------------------|-------------------------|----------4-------2----|
---------------------------|-------------------------|-----------------------|
---------------------------|-------------------------|-----------------------|

  E  E  E  E  E  E  E  E     E  E  E  S S H           E  E  E  S S Q.     E
--------------------------|------------------------|---------------0---------|
--------------------------|-----------0------------|--------0--1-3--------3--|
--------------0-----------|--2--2--2----2-0--------|--2--2-------------------|
--1--1--2--4-----2--4--2--|------------------------|-------------------------|
--------------------------|------------------------|-------------------------|
--------------------------|------------------------|-------------------------|

  Q    E  E  E  E  E  E     E  E  E  S S E  E  E  E
----------------0--1--0--|-----------3-1-0--------0--|
--1----0--1--3-----------|--3--1------------1--3-----|
-------------------------|--------3------------------|
-------------------------|---------------------------|
-------------------------|---------------------------|
-------------------------|---------------------------|

  S S E  E  E  Q    E  E     S S E  S S S S E  E  E  E
--1-3-5--L--5--6-------3--|--1-0-1--L-3-5---3--------0--|
--------------------------|---------------6----3--L-----|
--------------------------|-----------------------------|
--------------------------|-----------------------------|
--------------------------|-----------------------------|
--------------------------|-----------------------------|

  Q    Q.     E  E  E     E  E  E  E  E  E  E  E     E  S S E  E  E  E  Q
--1-----------0--------|-----1--0-----0--3--1--0--|--1--3-5-3--1--0----------|
-------1---------3--1--|--3--------3--------------|------------------3--1----|
-----------------------|--------------------------|--------------------------|
-----------------------|--------------------------|--------------------------|
-----------------------|--------------------------|--------------------------|
-----------------------|--------------------------|--------------------------|

  E  E  E  E  E  S S T T T T T T T X X    Q         H
--------1--0--0----0---0---0---0---0---|--------||--0--------||
--L--------------3---3---3---3---3---3-|--1-----||--1--------||
-----2---------------------------------|-------*||--0--------||
---------------------------------------|-------*||-----------||
---------------------------------------|--------||-----------||
---------------------------------------|--------||-----------||

Duration Legend
---------------
W - whole
H - half
Q - quarter
E - 8th
S - 16th
T - 32nd
X - 64th
. - note dotted
|-n-|  - n-tuplets

Tablature Legend
----------------
L - tied note





Dan Don Fuga
~We Love Katamari~
Composed By: Yu Miyake
Arranged By: Justin Lincoln

Guitar 2

     Q    Q.     E  E  E     E  E  E  E  E  E  E  S S    E  E  E  E  Q.     E
E||-----------------------|---------------------------|------------------------|
B||--1--------------------|---------------------------|------------------------|
G||-------0------2--0-----|-----------------------0---|-----2--0---------------|
D||--------------------3--|--2--0--2-----3--3--3----3-|--2--------3--2---------|
A||-----------------------|-----------3---------------|---------------------0--|
E||-----------------------|---------------------------|------------------------|

  Q.     E  S S E.  S S S    E  Q    E  E  E  E  S S
--------------------------|--------------------------|
--------------------------|--------------------------|
--------------------------|--------------------------|
--------------------------|------------------------0-|
--3------0----------0-2---|--0-------------0--2--3---|
------------3-2-3-------3-|-----0----2--3------------|

  E  E  E  S S Q    E  E     H        E  E  E  E     E  E  Q.     E  E  E
--------------------------|-----------------------|------------------------|
-------------0-1----0-----|-----------------------|------------------------|
--------0--2-----------2--|--0--------L-----------|--0---------------------|
--2--3--------------------|--------------3--2--0--|---------------0--------|
--------------------------|-----------------------|--------3---------3--2--|
--------------------------|-----------------------|------------------------|

  H        H           E  E  E  E  Q    E  E     Q    Q    E  E  Q
--------------------|-------------------------|-----------------------|
--------------------|-----1--0-------------0--|-------1----0----------|
-----------2--------|--L--------2--1----2-----|---------------2--1----|
--------------------|-------------------------|--2--------------------|
--0-----------------|-------------------------|-----------------------|
--------------------|-------------------------|-----------------------|

  E  E  Q    E  E  E  E     Q    Q    Q    Q       E  E  E  E  E  E  E  E
-------------------------|----------------------|--------------------------|
----------------------0--|----------------------|--------------------------|
--2-----2----1--1--2-----|----------------------|--------------------------|
-----2-------------------|--2---------2---------|--------------------------|
-------------------------|-----------------0----|--L--3--2--0--------------|
-------------------------|----------------------|--------------3--2--3--0--|

  E  E  E  S S H           E  E  E  E  E  E  E  E     E  E  E  S S Q    Q
------------------------|--------------------------|-------------------------|
------------------------|--------------------------|-------------------------|
------------------------|--------------------------|--------------------0----|
------------------------|--------------------------|--0--0--0--2-0-----------|
--0--0--0--2-0----------|-----0--2--3--2--2--3--2--|---------------3---------|
---------------3--------|--2-----------------------|-------------------------|

  Q    E  E  Q    Q       Q    Q.     E  E  E     E  E  E  S S Q    E  E
-----------------------|-----------------------|--------------------0-----|
-----------------------|-----------------------|-------------1-3-------3--|
--L---------------2----|--L----0------------0--|--2--3--2--3--------------|
-------3--2--0---------|--------------2--3-----|--------------------------|
-----------------------|-----------------------|--------------------------|
-----------------------|-----------------------|--------------------------|

  Q.     E  Q    E  E     E  E  E  E  Q    Q       Q    H        Q
-----------------------|------------------------|---------------------|
--1------1-------------|------------------------|---------------------|
------------3----2--0--|------------------------|-------0--------2----|
-----------------------|--3--2--3--0--2----3----|--L------------------|
-----------------------|------------------------|---------------------|
-----------------------|------------------------|---------------------|

  Q    Q    Q    Q       E  E  E  E  E  E  E  E     Q         H
----------------------|--------------------------|--------||-----------||
-------0----1---------|--------------------------|--------||-----------||
--L-------------------|--------2--0-----2--0-----|-------*||-----------||
-----------------2----|--L--2--------3--------3--|--2----*||--2--------||
----------------------|--------------------------|--------||--3--------||
----------------------|--------------------------|--------||-----------||

Duration Legend
---------------
W - whole
H - half
Q - quarter
E - 8th
S - 16th
T - 32nd
X - 64th
. - note dotted
|-n-|  - n-tuplets

Tablature Legend
----------------
L - tied note



Dan Don Fuga                                   
~We Love Katamari~
Composed By: Yu Miyake
Arranged By: Justin Lincoln

Bass



     W                   W                   W                 
G||-------------------|-------------------|-------------------|
D||-------------------|-------------------|-------------------|
A||-------------------|-------------------|-------------------|
E||-------------------|-------------------|-------------------|


  W                   W                   Q    Q.     E  E  E   
-------------------|-------------------|--5----0------2--0-----|
-------------------|-------------------|--------------------3--|
-------------------|-------------------|-----------------------|
-------------------|-------------------|-----------------------|


  E  E  E  E  E  E  E  S S    E  E  E  E  Q.     E     E  E  E  E  E  E  E  E   
-----------------------0---|--------------2------0--|-----0--2--0--------------|
--2--0--2-----3--3--3----3-|--2--0--2---------------|--3-----------3--2--0-----|
-----------3---------------|-----------3------------|-----------------------3--|
---------------------------|------------------------|--------------------------|


  E  E  Q.     E  E  E     Q    E  E  Q    E  E     E  E.  S S S E  Q    E   
------------------------|------------------------|--------------------------|
--------2------3--2--0--|-------------0----------|--------------------------|
--2---------------------|--3-------3----------2--|--0--0---2-3-0-2----------|
------------------------|------------------------|------------------2----4--|


  E  E  E  E  Q.     E     Q.     E  Q    Q       E  E  E  E  H         
------------------------|----------------------|-----------------------|
------------------------|--4------4--2----0----|-----------1--2--------|
--0-----0--2--3------0--|----------------------|--3--2--4--------------|
-----4------------------|----------------------|-----------------------|


  Q    Q    Q    E  E     Q    Q    E  E  E  E     E  E  E  S S E  E  E  E   
-----------------------|-------0----------------|--2--2--2--2-0-------------|
--L----1----2----0--2--|--3---------2--2--3--2--|---------------3--2--0-----|
-----------------------|------------------------|------------------------3--|
-----------------------|------------------------|---------------------------|


  E  E  Q    Q    E  E     Q    Q.     E  E  E     E  E  E  E  E  E  E  S S  
------------------------|-----------------------|---------------------------|
------------------------|--3-----------0--------|---------------------------|
--1--0--1----3----3-----|-------3---------3--1--|--0-----0-----1--1--1--3-1-|
------------------------|-----------------------|-----3-----1---------------|


  H        H           H        H           H        Q.     E   
--------------------|--------------------|---------------------|
--------------------|--------------------|---------------------|
--0-----------------|--------------------|-----------0---------|
-----------3--------|--3--------3--------|--3---------------3--|


  H        H           Q         H          
--------------------|--------||-----------||
--------------------|-------*||-----------||
--------------------|--3----*||--3--------||
--1--------3--------|--------||-----------||




Duration Legend
---------------
W - whole
H - half
Q - quarter
E - 8th
S - 16th
T - 32nd
X - 64th
. - note dotted
|-n-|  - n-tuplets


Tablature Legend
----------------
L - tied note

2 comments on Dan Don Fuga

Superb!

Brilliant tab. Thank you. Do you have any plans for more Katamari stuff?

Ka-ta-ma-ri-da-ma-a-shiiiiii!

Not really, those Katamari

Not really, those Katamari songs don't really lend themselves to guitar arrangements very easily. Lots of funky synths and electronics. Still, who knows.