Login or Register to remove this ad. | Advertise Here

Castle in the Mist (Ico) Guitar Tab

Submitted: Apr 13, 2009 by farskatefar552321 (Last updated: Feb 03, 2010)

5
Average: 5 (9 votes)
Download | Listen
Game: Ico
Composer(s): Oshima Michiru
Style: Arrangement, Fingerstyle

AutoScroll: Slow | Medium | Fast
                                ICO
                   
                           castle in the mist  

     arrangement by farskatefar. e-mail: farskatefar@yahoo.fr                             


     Q    Q    Q    Q       Q    Q    Q    Q       Q    Q    Q    Q     
E||--0--------------0----|------------0---------|-------0--------------|
B||------------0---------|-------0--------------|--0--------------0----|
G||-------2--------------|--2--------------2----|------------2---------|
D||--2--------------0----|----------------------|-------0--------------|
A||----------------------|------------3---------|----------------------|
E||----------------------|----------------------|----------------------|


  Q    Q    Q    Q       Q    Q    Q    Q       Q    Q    Q    Q     
--0--------------0----|------------0---------|-------0--------------|
------------0---------|-------0--------------|--0--------------0----|
-------2--------------|--2--------------2----|------------2---------|
--2--------------0----|----------------------|-------0--------------|
----------------------|------------3---------|----------------------|
----------------------|----------------------|----------------------|


  Q    Q    Q    Q       Q    Q    Q    Q       Q    Q    Q    Q     
--0--------------3----|-------2----0---------|----------------------|
------------0---------|-------0--------------|--0----3---------0----|
-------2--------------|--2--------------2----|------------2---------|
--2--------------0----|----------------------|-------0--------------|
----------------------|------------3---------|----------------------|
----------------------|----------------------|----------------------|


  Q    Q    Q    Q       Q    Q    Q    Q       Q    Q    Q    Q     
--0----3----2----0----|----------------------|--7----7--------------|
------------0---------|-------3----5---------|--0--------------0----|
-------2--------------|--2--------------2----|------------2---------|
--2--------------0----|----------------------|-------0--------------|
----------------------|------------3---------|----------------------|
----------------------|----------------------|----------------------|


  Q    Q    Q    Q       Q    Q    Q    Q       Q    Q    Q    Q     
--0--------------3----|-------2----0---------|----------------------|
------------0---------|-------0--------------|--0----3---------0----|
-------2--------------|--2--------------2----|------------2---------|
--2--------------0----|----------------------|-------0--------------|
----------------------|------------3---------|----------------------|
----------------------|----------------------|----------------------|


  Q    Q    Q    Q       Q    Q    Q    Q       Q    Q    Q    Q     
----------------------|----------------------|----------------------|
------------0---------|-------0--------------|--0--------------0----|
-------2--------------|--2--------------2----|------------2---------|
--2--------------0----|----------------------|-------0--------------|
----------------------|------------3---------|----------------------|
----------------------|----------------------|----------------------|


  Q    Q    Q    Q       Q    Q    Q    Q        Q    Q    Q    Q     
--7---------5----7----|-------5----7---------|--10----7--------------|
------------0---------|-------0--------------|---0--------------0----|
----------------------|----------------------|-----------------------|
-------7---------0----|--7--------------7----|--------0----7---------|
--7-------------------|----------------------|-----------------------|
----------------------|------------8---------|-----------------------|


  Q    Q    Q    Q       Q    Q    Q    Q        Q     Q     Q    Q     
--7---------5----7----|-------5----7---------|--12---------------------|
------------0---------|-------0--------------|---0----12----------0----|
----------------------|----------------------|-------------------------|
-------7---------0----|--7--------------7----|---------0---------------|
--7-------------------|----------------------|--------------12---------|
----------------------|------------8---------|-------------------------|


   Q     Q     Q     Q        Q     Q    Q     Q     
--12----------10----12----|--------10----7----15----|
---------------0----------|---------0---------------|
--------------------------|-------------------------|
---------------------0----|-------------------------|
--------12----------------|--12---------------12----|
--12----------------------|--------------8----------|


   Q     Q     Q     Q        Q     Q    Q     Q     
--14----12----------10----|--12---------------12----|
---0-----------------0----|--------------0----------|
--------------------------|-------------------------|
---------0----------------|--------------------0----|
--------------12----------|--------12---------------|
--------------------------|--12---------------------|


   Q    Q     Q     Q       Q     Q     Q    Q       W                 
-------------12----------|-------12---------------|-------------------|
--------0----------------|--0----------------0----|-------------------|
-------------------------|------------------------|--9----------------|
-------------------------|--------0---------------|-------------------|
--12---------------12----|-------------12---------|-------------------|
--------------8----------|------------------------|-------------------|

5 comments on Castle in the Mist

AWESOME

5

Love this song, great arrangement :D

thank you! me too love this

thank you! me too love this song :)

This is Great

It truly is

good song for getting broken

5

good song for getting broken up with

WONDERFUL (y) !!!! *O*

WONDERFUL (y) !!!! *O*