Login or Register to remove this ad. | Advertise Here

To the End of the Abyss (Final Fantasy X) Guitar Tab

Submitted: Sep 14, 2008 by Stamen47 (Last updated: Oct 31, 2009)

5
Average: 5 (3 votes)
Download | Listen
Game: Final Fantasy X
Composer(s): Nobuo Uematsu, Junya Nakano, Masashi Hamauzu
Style: Arrangement, Fingerstyle
Series: Final Fantasy

AutoScroll: Slow | Medium | Fast
                            To the End of the Abyss                             


     Q    Q    Q         E  E  Q    E  E     E  E  E  E  S S E   
E||-------x----x----||---7----------0-----|--0--------5--3------|
B||-----------------||------0--8----------|-----6--3-----3---6--|
G||-----------------||*-----5--5----------|--5-----3-------5-3--|
D||-----------------||*--------7----------|---------------------|
A||-----------------||---0-------------0--|---------------------|
D||-----------------||--------------------|--5-----3------------|


  E  E  E.  S E  E     E  E  E  E  S S E     E  E  Q    E  S S  
--3-----------------|---------------------|--7----------0------|
-----0--5---6-5-----|--------6--5--3-5-6--|-----0--8-----------|
--------5-----------|--5--3--3------------|-----5--5-----------|
-----5--5-----------|--3------------------|--------7-----------|
--0--------------0--|---------------------|--0-----------------|
--------------------|--5-----3---------5--|----------------7-6-|


  E  E  E  E  S S E     E  E  E.  S E  E     E  E  S S S S Q     
--0--------5--3------|--3-----------------|---------------------|
-----6--3-----3---6--|-----0--5---6-5-----|--------6-5-5-6-3----|
--5-----3-------5-3--|--------5-----------|--5--3--3------------|
-----------3---------|-----5--5-----------|--3------------------|
---------------------|--0--------------0--|---------------------|
--5-----3------------|--------------------|--5-----3------------|


  E  E  E  E  E  E  E  E     E  S S S S E  S S  S  S  S S E   
-----5-----------------0--|----------------0------12----7----|
-----0-----1-----3--------|--0------0-3-0--0---12----10---8--|
-----0-----2-----4-----5--|--7----7-5--------0--0------------|
--------------3--------7--|--7------3---0--------------------|
--0-----------------------|--7--7----------8----------8---7--|
--------2--------2--3--5--|-------------5--------------------|


  E  E  E  E  E  E  E  E     E  S S E  S S E  S S S S E   
-----5-----5--3--3--0-----|--0--------------------0-5-5--|
-----0--0--0--0--3-----3--|--1--3---0--0-3-3----3-----0--|
-----2--0--2-----0--------|-----4-2-0------4------5---0--|
--------------0--------3--|--3------2--2---5-------------|
--------------------------|------------------------------|
-----0--2--------3-----2--|--0---------3------0-------3--|


  E  E  E  E  E  E  E  E     E  S S S S E  S S  S  S  S S E   
-----5-----------------0--|----------------0------12----7----|
-----0-----1-----3--------|--0------0-3-0--0---12----10---8--|
-----0-----2-----4-----5--|--7----7-5--------0--0------------|
--------------3--------7--|--7------3---0--------------------|
--0-----------------------|--7--7----------8----------8---7--|
--------2--------2--3--5--|-------------5--------------------|


  E  E  E  E  E  E  E  E     E  E  S S S S S S S S S S S S    
-----5-----5--3--3--0-----|-----5------------------0-4-7-0--||
-----0--0--0--0--3-----3--|-----0----0---0-1-----1-1--------||
-----2--0--2-----0--------|--2--0--5---2---1-0-1---0---7---*||
--------------0-----------|--------3-----------1-----------*||
--------------------------|---------------------------------||
-----0--2--------3-----2--|--0---------5---3-------2---6----||


  E  E  E  E  E  E     E  E  E  E  E  E     E  E  E  E    E  E   
--7-----------0-----|--0--------5--3-----|--3-----0-------0-----|
-----0--8-----------|-----6--3--------6--|-----0----------------|
--9-----5-----5-----|--5-----3-----------|--5-----0-------0-----|
-----------7--5-----|--------3-----3-----|-----------7S--10--7--|
--0-----7--------0--|--------------------|--0-----7-------------|
--------------------|--5-----------------|----------------------|


   E  E  E  E  E  E     E  E  E  E  E  E     E  E  E  E  E  E   
---0--------5--3--1--|--2-----------------|-----------0--------|
------6--3-----------|--0-----3-----0--0--|--0--1-----1--3--1--|
---0-----3-----------|--2-----0-----0-----|--0-----2-----------|
--10--0--------2--3--|-----4--4--2--0--0--|--------3--------3--|
---------0--3--------|--------------------|--------3-----------|
---------------------|--2--L--------------|--0-----------------|


  E  S S E  E  E  E     E  E  E  E  E  E     E  E  E  E  E  E   
---------------------|-----------0--------|--2-----------------|
--3------0-----0-----|--0--1-----1--3--1--|--3-----3-----0-----|
--0------------0-----|--0-----2-----------|--------0-----0-----|
--4--4-4-0-----0-----|--------3--------0--|-----4--4--2--0--2--|
------------7-----7--|--------3-----------|--------------------|
--2----L-------------|--0-----------------|--2--L--------------|


                                                       |-3-|  
  E  E  E  E  E  E     E  E  E  E  Q       H        E  S S S  
-----------0--------|-------------------|--------------------|
--0--1--------3--1--|--0----------------|--------------------|
--0-----2-----------|-----2--1----------|--------------------|
--------3-----------|--4-----1--3-------|--------------x-x-x-|
--------3-----------|-------------------|--------------------|
--0-----------------|-------------------|--------------------|


  E  S S S S S S S S S S    S S S S S S S S S S S S    S S S S S S S S S S E    
-----5---5---5---5---5---|--5---5---5---5---5---5---|--5---5---5---5---5---5S--|
-----5---5---5---5---5---|--5---5---5---5---5---5---|--5---5---5---5---5---5S--|
-------------------------|--------------------------|--------------------------|
-------------------------|--------------------------|--------------------------|
-------------------------|--------------------------|--------------------------|
--3------------------2---|--3-------5-----------0---|----------2-------3-------|


  S S S S S S S S E  E     E  E    E  Q.         Q     Q    Q     
--3---3---3---3---3-----|--5--LS--10---------|--12----10----8----|
--3---3---3---3---3-----|-----6--------------|-------------------|
------------------------|--------------------|-------------------|
------------------------|--------------------|-------------------|
----------0-------------|--------------------|-------------------|
--5------------------2--|--3-------0---------|-------------------|


   Q     Q     Q        Q    Q    Q       Q    Q    Q    Q     
--------------------|---0---------0----|--5-------------------|
--12----10-----0----|--10--------------|--3---------0---------|
--------------12----|--10--------------|-------5---------2----|
--------------10----|------------------|----------------------|
--------------------|------------------|----------------------|
--------------------|-------------2----|--0-------------------|


  ^                                                                  
  Q    Q    Q    Q       Q    Q    Q    Q       Q    Q    Q    Q     
----------------------|--6-------------------|----------------------|
--3----1----3----1----|--7----7----6----7----|--6-------------------|
--0-------------------|--8-------------------|-------8----6---------|
--2-------------------|--6-------------------|-----------------9----|
--0-------------------|----------------------|--8-------------------|
----------------------|----------------------|----------------------|


  W                  
-------------------||
--6----------------||
-------------------||
-------------------||
--L----------------||
-------------------||




Duration Legend
---------------
W - whole
H - half
Q - quarter
E - 8th
S - 16th
T - 32nd
X - 64th
. - note dotted
|-n-|  - n-tuplets


Tablature Legend
----------------
L - tied note
x - dead note
g - grace note
(n) - ghost note
> - accentuded note
h - hammer on
p - pull off
S - shift slide
T - tapping
< - fade in
^ - brush up
v - brush down

2 comments on To the End of the Abyss

Wow, a song from FF10 I've

Wow, a song from FF10 I've never heard of? Crazy. Nice job on this though.

HOLY SHIT!

5

Man, I have to say this amazing. It is 100% spot on.
Second, can you even play this haha? This is incredibly hard but sooo incredibly good.
I honestly could sit there for 6 hours and only be able to play 1/4 of it fluently.
I just learned Sight of Spira from you which was incredibly tabbed.
You my friend, are an amazing tabber, I cant give enough thanks for your work!