Login or Register to remove this ad. | Advertise Here

Suteki Da Ne (Final Fantasy X) Guitar Tab

Submitted: Jan 06, 2009 by TheDoomOfAllFires (Last updated: Apr 04, 2014)

4.923075
Average: 4.9 (13 votes)
Download | Listen
Game: Final Fantasy X
Composer(s): Nobuo Uematsu, Junya Nakano, Masashi Hamauzu
Style: Arrangement, Fingerstyle
Series: Final Fantasy

AutoScroll: Slow | Medium | Fast
"Suteki Da Ne" - Final Fantasy X
Composer : Nobuo Uematsu
Arrangement : TheDoomOfAllFires
Tuning : Standard EADGBE
BPM : 70


                                                    ^        
E |--------8--------7----------|--5--------3L-3-------------|
B |--5--6-----------------8----|-----0--------------0-------|
G |--------0--7--9-----5-------|--------5-----------0-------|
D |--7-------------------------|--0-----------------2-------|
A |--------------8-----7-------|----------------------------|
E |----------------------------|--------------------0-------|

                                                          
--0-----------7--------7----|--0--------------------0----|
--------------0-------------|--1-----1--0--------3-------|
--------2s-5--------0-------|-----2--2-----------2-------|
-----2-----------0----------|-----3-----------2----------|
--0-------------------------|----------------------------|
--------------3-------------|--1-----------0-------------|

  ^           ^                            ^              
--------0-------------------|--0--------1--0-------------|
--------------3-----0-------|--1-----1-----0-----0-------|
--2-----------4--------0----|-----0--------2-----1-------|
--3-----------5-------------|----------------------------|
-----3----------------------|--3-------------------------|
--1-----------3-------------|--------------0-------------|

                                                          
--5--------5--7-----10------|--8-----7-----5-----8--10---|
----------------------------|-----8-----5----------------|
-----2s-5-----------10------|--9-----7-----5-------------|
--3--------------0----------|-----------------2s-7-------|
----------------------------|--0-----------0-------------|
--------------3-------------|----------------------------|

                             
--12s---0--------0-----8----|
-----------6--------6-------|
-----7--------7-------------|
--0-----------0-------------|
----------------------------|
----------------------------|

  ^                                                                             
--7-----------------------0-----------------------8-----------7h-8h-7-----5-----
--0-----------------------------------------------------------------------------
--0-----------------------------------------------9-----------------------7-----
--------------------------------------------------------------------------------
--------------------------------------------------------------------------------
--0-----------------------------------------------------------------------------

                                                                          
--------------------|--5-----------------------------------0-------------|
------8-------------|--------------------0-----1h-0--------1-----0-------|
--------------------|--5-----------2-----------------2-------------------|
--------------------|--------2-------------------------------------------|
--------------------|--0-------------------------------------------------|
--------------------|----------------------------------------------------|

                                                     
--------------------------------------0-------------|
--------------------0-----1h-0--------1-------------|
--------------2-----------------2-------------------|
--------2-----------------------------2-------------|
--0-------------------------------------------------|
----------------------------------------------------|

                                                          
----------------------------|--0-----1--0----------------|
--------0--1--0-----1--3----|--1-----------3-------------|
--2-----0-----------2-------|--------0-------------------|
-----2-----------0-----0----|-----2-----------------0----|
--0-------------------------|--3--------------0--2-------|
--------------3-------------|--------------3-------------|

                             
--0-------------------------|
--------3--1--0-------------|
-----0--------------0-------|
--------2--------0-----0----|
--3-------------------------|
--------------3-------------|

                                                                                
-----------------------------------------------------------------0--------------
--0h-1-----------------------0-----------------------------------------------0--
-----2-----------------------------------2-----------0--------------------------
-----------------2-----------------------------------------------------------2--
-----0-----------------------------------------------------------2--------------
-----------------------------------------------------0--------------------------

                                                     
-----------------------|----------------------------|
-----------------------|--------0--1--0-----1--3----|
---------0-------------|--0--2--------0-------------|
-----------------------|--2-----0-----------0-------|
-----------------------|--0--------------2----------|
-----------------------|--------------3-------------|

                                                          
--0-----1--0----------------|--0-------------------------|
--1-----1-----3-------------|--------3--1-----0----------|
-----0--------0-------------|--------2-----2-----0-------|
-----------------------0----|--------------0--------2----|
--3--------------0--2-------|-----3----------------------|
--------------3-------------|--1-----------3-------------|

  ^                                                       
----------------------------|----------------------------|
----------------------------|--------0--1--0-----1--3----|
--0h-2--2-------------------|--2-----0-----------2-------|
--2-------------------------|-----2-----------0-----0----|
--0-------------------------|--0-------------------------|
----------------------------|--------------3-------------|

                                                          
--0-----1--0----------------|--0-------------------------|
--1-----------3-----0-------|--------3--1--0-------------|
--------0-------------------|-----0--------------0-------|
-----2-----------------0----|--------2--------0-----0----|
--3--------------0--2-------|--3-------------------------|
--------------3-------------|--------------3-------------|

                                                                                
-----------------------------------------------------------------0--------------
--0h-1-----------------------0-----------------------------------------------0--
-----2-----------------------------------2-----------0--------------------------
-----------------2-----------------------------------------------------------2--
-----0-----------------------------------------------------------2--------------
-----------------------------------------------------0--------------------------

                                                     
-----------------------|----------------------------|
-----------------------|--------0--1--0-----1--3----|
---------0-------------|--0--2--------0-------------|
-----------------------|--2-----0-----------0-------|
-----------------------|--0--------------2----------|
-----------------------|--------------3-------------|

                                                          
--0-----1--0----------------|--0-------------------------|
--------------3-------------|--------3--1-----0----------|
--------0-------------------|--------2-----2-----0-------|
-----2-----------------0----|--------------0--------2----|
--3--------------0--2-------|-----3----------------------|
--------------3-------------|--1-----------3-------------|

                             
--------------8-----10------|
--------------10----8-------|
--0h-2--2-----9-----7-------|
--2-----2-------------------|
--0-------------------------|
----------------------------|

                                                     
--8--------7--7-----5-----5--3----------------------|
-----------------------------0--------1-----3-------|
--9--------7--7-----5-----5-----------2-------------|
--7--------5--5-----3-----3--2----------------------|
----------------------------------------------------|
--------------------------------------3-------------|

  ^           ^                ^                          
--0-----3-------------------|--0-------------------------|
--1-----1-----3--------0----|--1-----3--1-----1--1--3----|
-----0--------0-----0-------|--------0-----2--------0----|
-----------------0----------|-----2--------3-----3-------|
--3-------------------------|--0-------------------------|
--------------3-------------|--------------1-------------|

        ^                      ^                 ^        
--0-----3-------------------|----------------------------|
--1-----1-----3-----1--0----|--------------------1--3----|
-----0--------------0-------|--2-----------------2-------|
--------2--------0----------|--3-------------------------|
--3-------------------------|----------------------------|
--------------3-------------|--1-----------------3-------|

              ^                ^                          
--0-----3-------------------|--0-------------------------|
--1-----1-----3--------0----|--1-----3--1-----1--1--3----|
-----0--------0-----0-------|--2-----------2--------0----|
-----------------0----------|-----2--------3-----3-------|
--3-------------------------|--0-------------------------|
--------------3-------------|--------------1-------------|

              ^                ^                                  
--0-----3-----7-----3-------|--5----|--------5-----3-----1-------|
--1-----1-----0-----0-------|-------|----------------------------|
-----0--------0--------0----|--5----|--------5-----4-----2-------|
--------2--------0----------|--3----|-----3----------------------|
--3-------------------------|-------|--3-------------------------|
--------------3-------------|-------|----------------------------|

                                                          
--0-----0-------------------|--------3-----0-------------|
--0--------0--------0-------|--------0-----1-----0-------|
--0--------------0-----0----|--------0-----2-----0-------|
-----2----------------------|-----2-----2----------------|
----------------------------|--0-------------------------|
--0-----------0-------------|----------------------------|

  ^     ^                         ^                       
----------------------------|-----0----------------------|
-----1--1-------------------|-----1--------3-----1-------|
--2-----2-------------------|-----2--------4-----2-------|
--3-----3-------------------|-----3--------3-----3-------|
----------------------------|----------------------------|
--1--------------------0----|--1-------------------------|

  ^                                  ^                    
-----0----------------------|--------0-----7-----3s------|
--3-------------------------|--------0-----8-------------|
--0-----0-------------------|--------0-------------------|
--2-------------------------|----------------------------|
--2-------------------------|-----2----------------------|
--0-------------------------|--0-------------------------|

                          ^           ^              
--5-----------5--------------------------0----------|
--------5-----------5-----3-----------3-----0-------|
--5-----------------------0-----------0-------------|
--3-----------------------2-----------0-------------|
----------------------------------------------------|
--------------------------------------3-------------|

                                                          
----------------------------|----------------------------|
--1-----------0-------------|--1-----------0-------------|
--------2-----------2-------|--------2-----------2-------|
-----2-----2-----3-----3----|-----2-----2-----3-----3----|
--0-----------0-------------|--0-----------0-------------|
----------------------------|----------------------------|

                                                     
--0-------------------------------------------------|
--------------1h-0--------12~-----------------------|
--------2-----------2-------------------------------|
----------------------------------------------------|
--0-------------------------------------------------|
----------------------------------------------------|

                                                          
--5--------------------5----|--0-----------0-----0-------|
--------5-----------5-------|--------0-----------0-------|
-----5-----5-----5-----5----|-----2-----2-----2-----2----|
--3-----------3-------------|--0-------------------------|
----------------------------|----------------------------|
----------------------------|----------------------------|

                                                          
--------------0-------------|--------------0-------------|
-----------0-----------0----|-----------0-----------0----|
--------5-----------5-------|--------5-----------5-------|
-----7-----------7----------|-----7-----------7----------|
--0-------------------------|--0-------------------------|
----------------------------|----------------------------|

                                                            v
--------8--------7----------|--5--------3--1--------0----|--0----||
--5--6-----------------8----|-----0--1-------------------|--0----||
--------0--7--9-----5-------|-----------------0--2-------|--2----||
--7-------------------------|--------2-------------------|--2----||
--------------8-----7-------|--0-------------------------|--0----||
----------------------------|--------------0-----3-------|-------||



Legend
L - tied note
x - dead note
h - hammer on/pull off
b - bend
s - slide
~ - vibrato
g - ghost note
> - accentuated note
t - trill
M - palm mute
. - staccato
P - popping (bass)
S - slapping (bass)
+ - tapping
W - wide vibrato
< - fade in
w - whammy bar
= - tremolo picking
v - brush up
^ - brush down
V - pick stroke up
n - pick stroke down

13 comments on Suteki Da Ne

nice

Sounds awfully familiar to me though. Is this based off of the official guitar arrangement or something?

Yes, it is. I used some parts

Yes, it is.
I used some parts of the official arrangement.
That's why I wrote "Tabbed by TDOAF" and not "Arranged by TDOAF".
Because it's not fully my own arrangement.

(P.S. : Sorry for my english XD !)

I thought it sounded a little

I thought it sounded a little like the official arrangement too, but I think it's different enough to warrant putting it up.

Wow

5

I'm suprised I thought this song couldn't be played on guitar. Good job.

I like it.

5

Very nice. I like how you modified it. Sounds great!

gay song

if you listen to the original song it sounds really gay

sight of spira or the dream will end are MUCH better

rikku

first time i heard it i thougt rikku was singing

Good work, yet again. I'm

Good work, yet again. I'm always looking for your tabs when I'm browsing a game here. :D

damn -_- why i never noticed

5

damn -_- why i never noticed this tab before ? That's so cute to play, bravo Monsieur TheDoomOfAllFires !

O_O WOOOOOOOW

this is the best suteki da ne tab i ever played

I love the random button

5

I love the random button

*UPDATE* It's been ages since

*UPDATE*
It's been ages since the last time I played this tab, so when I grabbed my guitar and played it, I thought I could change some minor things that I wasn't really happy about.
I think I'm gonna do the same thing with some other of my old tabs too. :P

Old version

4

I like the old version, I guess since I was used to it. Still great tab though.