Login or Register to remove this ad. | Advertise Here

Song of Prayer - Complete (Final Fantasy X) Guitar Tab

Submitted: Feb 21, 2009 by Kabukibear (Last updated: Nov 27, 2009)

5
Average: 5 (7 votes)
Download | No audio :(
Game: Final Fantasy X
Composer(s): Nobuo Uematsu, Junya Nakano, Masashi Hamauzu
Style: Fingerstyle, Transcription
Series: Final Fantasy

AutoScroll: Slow | Medium | Fast

READ ALL OF THE FOLLOWING!

To use the guitarpro file correctly, choose the version you want in the track list at the bottom by clicking on it's name, and then checking in the S box (meaning solo).
Otherwise it will sound like a mish-mash of tracks.
================================================================
- Ok, the Song of Prayer is played a bunch of different times throughout the game Final Fantasy X. No, they don't all sound the same, which is causing some confusion. That being the case, I decided to finally put this matter to rest as people were getting confused and trying to correct tabs that were already correct because they heard a different "version" of the same piece.

note: on Song of Prayer: Ixion/Bodyguard/Ronzo, the notes without brackets are the actual notes. However, you would have to tune your 6th string to a low C to play them so I put them up an octave as well.

================================================================

Song of Prayer (Original)
~Final Fantasy X~
Tabbed by: Justin Lincoln

     Q    Q    Q    Q       W                   Q    Q    Q    E  E   
E||------------1----0----|--3----------------|-------3----1----3--5--|
B||-------3--------------|-------------------|-----------------------|
G||----------------------|-------------------|-----------------------|
D||----------------------|-------------------|-----------------------|
A||----------------------|-------------------|-----------------------|
E||----------------------|-------------------|-----------------------|


  W                   Q    Q    Q    Q       W                 
-------------------|-----------------0----|--0----------------|
--3----------------|------------0---------|-------------------|
-------------------|-------2--------------|-------------------|
-------------------|----------------------|-------------------|
-------------------|----------------------|-------------------|
-------------------|----------------------|-------------------|


  Q    Q    Q    E  E     W                   W                 
-------3----1----3--5--|-------------------|-------------------|
-----------------------|--3----------------|-------------------|
-----------------------|-------------------|-------------------|
-----------------------|-------------------|-------------------|
-----------------------|-------------------|-------------------|
-----------------------|-------------------|-------------------|


  Q    Q    Q    Q       H        H           Q    Q    Q    Q     
------------0----0----|--1--------1--------|--L---------0---------|
--3----3--------------|--------------------|-----------------1----|
----------------------|--------------------|----------------------|
----------------------|--------------------|----------------------|
----------------------|--------------------|----------------------|
----------------------|--------------------|----------------------|


  Q    Q    H           W                  
---------------------|-------------------||
--1----3----3--------|--L----------------||
---------------------|-------------------||
---------------------|-------------------||
---------------------|-------------------||
---------------------|-------------------||


============================================================
                                
Song of Prayer: Valefor/Yunalesca

     Q    Q    Q    Q       W                   Q    Q    Q    E  E   
E||----------------------|-------------------|--------------------0--|
B||------------1----0----|--3----------------|-------3----1----3-----|
G||-------2--------------|-------------------|-----------------------|
D||----------------------|-------------------|-----------------------|
A||----------------------|-------------------|-----------------------|
E||----------------------|-------------------|-----------------------|


  W                   Q    Q    Q    Q       W                 
-------------------|-------0----2---------|--0----------------|
-------------------|-----------------3----|-------------------|
--2----------------|----------------------|-------------------|
-------------------|----------------------|-------------------|
-------------------|----------------------|-------------------|
-------------------|----------------------|-------------------|


  Q    Q    Q    E  E     W                   W                 
--------------------0--|-------------------|-------------------|
-------3----1----3-----|-------------------|-------------------|
-----------------------|--2----------------|-------------------|
-----------------------|-------------------|-------------------|
-----------------------|-------------------|-------------------|
-----------------------|-------------------|-------------------|


  Q    Q    Q    Q       H        H           Q    Q    Q    Q     
----------------------|--------------------|----------------------|
------------0----0----|--1--------1--------|--L---------0---------|
--2----2--------------|--------------------|-----------------0----|
----------------------|--------------------|----------------------|
----------------------|--------------------|----------------------|
----------------------|--------------------|----------------------|


  Q    Q    H           W                  
---------------------|-------------------||
---------------------|-------------------||
--0----2----2--------|--L----------------||
---------------------|-------------------||
---------------------|-------------------||
---------------------|-------------------||


========================================================

Song of Prayer: Ifrit

     Q    Q    Q    Q       W                   Q    Q    Q    E  E   
E||----------------------|-------------------|-----------------------|
B||----------------------|-------------------|-----------------------|
G||----------------------|-------------------|-----------------------|
D||----------------------|--0----------------|-------0---------0--2--|
A||-------0----3----2----|-------------------|------------3----------|
E||----------------------|-------------------|-----------------------|


  W                   Q    Q    Q    Q       W                 
-------------------|----------------------|-------------------|
-------------------|----------------------|-------------------|
-------------------|----------------------|-------------------|
-------------------|-------2----4----0----|--2----------------|
--0----------------|----------------------|-------------------|
-------------------|----------------------|-------------------|


  Q    Q    Q    E  E     W                   W                 
-----------------------|-------------------|-------------------|
-----------------------|-------------------|-------------------|
-----------------------|-------------------|-------------------|
-------0---------0--2--|-------------------|-------------------|
------------3----------|--0----------------|-------------------|
-----------------------|-------------------|-------------------|


  Q    Q    Q    Q       H        H           Q    Q    Q    Q     
----------------------|--------------------|----------------------|
----------------------|--------------------|----------------------|
----------------------|--------------------|----------------------|
----------------------|--------------------|----------------------|
--0----0----2----2----|--3--------3--------|--L---------2---------|
----------------------|--------------------|-----------------3----|


  Q    Q    H           W                  
---------------------|-------------------||
---------------------|-------------------||
---------------------|-------------------||
---------------------|-------------------||
-------0----0--------|--L----------------||
--3------------------|-------------------||


=======================================================

Song of Prayer: Ixion/Bodyguard/Ronzo

6th to C

     Q     Q      Q      Q         W                  
E||----------------------------|---------------------|
B||----------------------------|---------------------|
G||----------------------------|--(0)----------------|
D||-------(0)----(3)----(2)----|---------------------|
A||----------------------------|---------------------|
C||--------2------5------4-----|---7-----------------|


  Q     Q      Q      E    E       W                  
-------------------------------|---------------------|
-------------------------------|---------------------|
-------(0)-----------(0)--(2)--|---------------------|
--------------(3)--------------|--(0)----------------|
---------------------------0---|---------------------|
--------7------5------7--------|---2-----------------|


  Q     Q      Q      Q         W                  
----------------------------|---------------------|
--------------(0)-----------|---------------------|
-------(2)-----------(0)----|--(2)----------------|
----------------------------|---------------------|
--------0------2------------|---0-----------------|
----------------------7-----|---------------------|


  Q     Q      Q      E    E       W                    W                 
-------------------------------|---------------------|-------------------|
-------------------------------|---------------------|-------------------|
-------(0)-----------(0)--(2)--|---------------------|-------------------|
--------------(3)--------------|--(0)----------------|-------------------|
---------------------------0---|---------------------|-------------------|
--------7------5------7--------|---2-----------------|-------------------|


   Q      Q      Q      Q         H          H          
------------------------------|------------------------|
------------------------------|------------------------|
------------------------------|------------------------|
--(0)----(0)----(2)----(2)----|--(3)--------(3)--------|
------------------------------|------------------------|
---2------2------4------4-----|---5----------5---------|


  Q    Q     Q      Q         Q      Q      H            W                  
--------------------------|---------------------------|-------------------||
--------------------------|---------------------------|-------------------||
--------------------------|---------------------------|-------------------||
--L---------(2)-----------|---------(0)----(0)--------|--L----------------||
-------------------(3)----|--(3)----------------------|-------------------||
--L----------4------0-----|---0------2------2---------|--L----------------||


===========================================================================

Song of Prayer: Shiva

     Q     Q    Q    Q        W                   Q     Q    Q     E   E   
E||-------------8----7----|--10----------------|-------10----8----10--12--|
B||-------10--------------|--------------------|--------------------------|
G||-----------------------|--------------------|--------------------------|
D||-----------------------|--------------------|--------------------------|
A||-----------------------|--------------------|--------------------------|
E||-----------------------|--------------------|--------------------------|


   W                   Q     Q     Q     Q        W                 
--------------------|-------12----14----10----|--12----------------|
--10----------------|-------------------------|--------------------|
--------------------|-------------------------|--------------------|
--------------------|-------------------------|--------------------|
--------------------|-------------------------|--------------------|
--------------------|-------------------------|--------------------|


  Q     Q    Q     E   E      W                   W                 
-------10----8----10--12--|--------------------|-------------------|
--------------------------|--10----------------|-------------------|
--------------------------|--------------------|-------------------|
--------------------------|--------------------|-------------------|
--------------------------|--------------------|-------------------|
--------------------------|--------------------|-------------------|


   Q     Q    Q    Q       H        H           Q    Q    Q    Q     
--------------7----7----|--8--------8--------|--L---------7----3----|
--10----10--------------|--------------------|----------------------|
------------------------|--------------------|----------------------|
------------------------|--------------------|----------------------|
------------------------|--------------------|----------------------|
------------------------|--------------------|----------------------|


  Q     Q     H            W                  
-----------------------|--------------------||
--8----10----10--------|---L----------------||
-----------------------|--------------------||
-----------------------|--------------------||
-----------------------|--------------------||
-----------------------|--------------------||


=================================================================

Song of Prayer: Bahamut

     Q    Q    Q    Q       W                   Q    Q    Q    E  E   
E||----------------------|-------------------|-----------------------|
B||----------------------|--1----------------|-------1---------1--3--|
G||-------0----3----2----|-------------------|------------3----------|
D||----------------------|-------------------|-----------------------|
A||----------------------|-------------------|-----------------------|
E||----------------------|-------------------|-----------------------|


  W                   Q    Q    Q    Q       W                 
-------------------|------------0---------|-------------------|
-------------------|-------3---------1----|--3----------------|
--0----------------|----------------------|-------------------|
-------------------|----------------------|-------------------|
-------------------|----------------------|-------------------|
-------------------|----------------------|-------------------|


  Q    Q    Q    E  E     W                   W                 
-----------------------|-------------------|-------------------|
-------1---------1--3--|-------------------|-------------------|
------------3----------|--0----------------|-------------------|
-----------------------|-------------------|-------------------|
-----------------------|-------------------|-------------------|
-----------------------|-------------------|-------------------|


  Q    Q    Q    Q       H        H           Q    Q    Q    Q     
----------------------|--------------------|----------------------|
----------------------|--------------------|----------------------|
--0----0----2----2----|--3--------3--------|--L---------3---------|
----------------------|--------------------|-----------------3----|
----------------------|--------------------|----------------------|
----------------------|--------------------|----------------------|


  Q    Q    H           W                  
---------------------|-------------------||
---------------------|-------------------||
-------0----0--------|--L----------------||
--3------------------|-------------------||
---------------------|-------------------||
---------------------|-------------------||

========================================================

Song of Prayer: Spira

     Q    Q    Q    Q       W                   Q    Q    Q    E  E   
E||------------1----0----|--3----------------|-------3----1----3--5--|
B||-------3--------------|-------------------|-----------------------|
G||----------------------|-------------------|-----------------------|
D||----------------------|-------------------|-----------------------|
A||----------------------|-------------------|-----------------------|
E||----------------------|-------------------|-----------------------|


  W                   Q    Q    Q    Q       Q    Q    H         
--0----------------|----------------------|-------3----5--------|
-------------------|------------0---------|---------------------|
-------------------|-------2---------0----|--2------------------|
-------------------|----------------------|---------------------|
-------------------|----------------------|---------------------|
-------------------|----------------------|---------------------|


  Q    Q    Q    E  E     W                   W                 
--------------------1--|-------------------|-------------------|
-------1---------1-----|-------------------|-------------------|
------------3----------|--3----------------|-------------------|
-----------------------|-------------------|-------------------|
-----------------------|-------------------|-------------------|
-----------------------|-------------------|-------------------|


  Q    Q    Q    Q       H        H           Q    Q    Q    Q     
------------0----0----|--1--------1--------|--L---------0---------|
--3----3--------------|--------------------|-----------------1----|
----------------------|--------------------|----------------------|
----------------------|--------------------|----------------------|
----------------------|--------------------|----------------------|
----------------------|--------------------|----------------------|


  Q    Q    H           W                  
---------------------|-------------------||
--1----3----3--------|--L----------------||
---------------------|-------------------||
---------------------|-------------------||
---------------------|-------------------||
---------------------|-------------------||

=======================================================

Song of Prayer: Anima

     Q    Q    Q    Q       W                   Q    Q    Q    E  E   
E||----------------------|-------------------|-----------------------|
B||----------------------|-------------------|-----------------------|
G||----------------------|--0----------------|-------0---------0--2--|
D||-------0----3----2----|-------------------|------------3----------|
A||----------------------|-------------------|-----------------------|
E||----------------------|-------------------|-----------------------|


  W                   Q    Q    Q    Q       W                 
-------------------|----------------------|-------------------|
-------------------|------------0---------|-------------------|
-------------------|-------2---------0----|--2----------------|
--0----------------|----------------------|-------------------|
-------------------|----------------------|-------------------|
-------------------|----------------------|-------------------|


  Q    Q    Q    E  E     W                   W                 
-----------------------|-------------------|-------------------|
-----------------------|-------------------|-------------------|
-------0---------0--2--|-------------------|-------------------|
------------3----------|--0----------------|-------------------|
-----------------------|-------------------|-------------------|
-----------------------|-------------------|-------------------|


  Q    Q    Q    Q       H        H           Q    Q    Q    Q     
----------------------|--------------------|----------------------|
----------------------|--------------------|----------------------|
----------------------|--------------------|----------------------|
--0----0----2----2----|--3--------3--------|--L---------2---------|
----------------------|--------------------|-----------------3----|
----------------------|--------------------|----------------------|


  Q    Q    H           W                  
---------------------|-------------------||
---------------------|-------------------||
---------------------|-------------------||
-------0----0--------|--L----------------||
--3------------------|-------------------||
---------------------|-------------------||




Duration Legend
---------------
W - whole
H - half
Q - quarter
E - 8th
S - 16th
T - 32nd
X - 64th
. - note dotted
|-n-|  - n-tuplets


Tablature Legend
----------------
L - tied note

4 comments on Song of Prayer - Complete

Kewl

Awesome. Great job, Kabukibear. I've been playing your tabs for a while now, great stuff, keep up the good work.

Really???

Magnificient work!!!

Although You wanna say that there (FFX) are different songs of prayer?
Strange... Never noticed...

It's not that noticable until

It's not that noticable until you play them side by side. The intervals are the same, but the notes start different places.

Good job, best of the prayer

5

Good job, best of the prayer songs I've found, really easy to understand.