Login or Register to remove this ad. | Advertise Here

Someday the Dream Will End (Final Fantasy X) Guitar Tab

Submitted: Jun 19, 2008 by Krimson (Last updated: Jun 19, 2008)

4.88889
Average: 4.9 (9 votes)
Download | Listen
Game: Final Fantasy X
Composer(s): Nobuo Uematsu, Junya Nakano, Masashi Hamauzu
Style: Transcription
Series: Final Fantasy

AutoScroll: Slow | Medium | Fast
"Someday the Dream Will End" from FFX
As tabbed by Krimson

e||-------------3-5--6-5-3----5--3----------------------------------
B||-3--5-6-5--6--------------------6-5--6--5-3-1---------------------
G||----------------------------------------------------------------
D||-----------------------------------------------------------------
A||-----------------------------------------------------------------
E||-----------------------------------------------------------------

e||-------------3-5--6-5-8--6--5--3---------------------------------
B||-3--5-6-5--6---------------------6-5-----3-3---------------------
G||-------------------------------------5-6-------------------------
D||-----------------------------------------------------------------
A||-----------------------------------------------------------------
E||-----------------------------------------------------------------

e||-----------------------------------------------------------------
B||---------------8-10--8---------------------------8-10-----10-----
G||-7--9-10-9--10----------10--9-7----7--9-10-9--10-------7---------
D||--------------------------------7--------------------------------
A||-----------------------------------------------------------------
E||-----------------------------------------------------------------

e||-----------------------------------------------------------------
B||-3--5-6-5--6-8-10--8-6-5-3---3--5-6-5--6-8-10--3--10-------------
G||---------------------------2-------------------------------------
D||-----------------------------------------------------------------
A||-----------------------------------------------------------------
E||-----------------------------------------------------------------

(repeat everything that follows twice)

e||-5-8-3--5-3-1---1-1-3-5-8-3-1-0-3--------------------------------
B||--------------3--------------------------------------------------
G||-----------------------------------------------------------------
D||-----------------------------------------------------------------
A||-----------------------------------------------------------------
E||-----------------------------------------------------------------

e||-1-3-5-8-3--5-3-1---1-1-3-5-8-12-8-10----------------------------
B||------------------3----------------------------------------------
G||-----------------------------------------------------------------
D||-----------------------------------------------------------------
A||-----------------------------------------------------------------
E||-----------------------------------------------------------------

*repeat all once more*

5 comments on Someday the Dream Will End

Good jobs, thanks

Good jobs, thanks

altered it a bit

woops double commented

altered it a bit

nice tab, sounds really great. i changed some of the voicings so that you arent really stuck on just the E and B strings and its easier to play but when i tried to paste it in here it looked messed up because of the font.

sounds great!

sounds great!

'cept I think this part:
e||-5-8-3--5-3-1---1-1-3-5-8-3-1-0-3--------------------------------
B||--------------3--------------------------------------------------

should be more like this:
e||-5-8-3--5-3-1---1-1-3-5-8-3-1-0----------------------------------
B||--------------3---------------------3--------------------------------
but that's my opinion

I agree with you, but still

I agree with you, but still thats not the perfect tab for the song... But i can't find a way to make it even better :/