Login or Register to remove this ad. | Advertise Here

Silence Before the Storm (Final Fantasy X) Guitar Tab

Submitted: Jul 17, 2008 by conqueran (Last updated: Feb 17, 2011)

4.714285
Average: 4.7 (7 votes)
Download | Listen
Game: Final Fantasy X
Composer(s): Nobuo Uematsu, Junya Nakano, Masashi Hamauzu
Style: Arrangement, Fingerstyle, Transcription
Series: Final Fantasy

Click here for a video example.

AutoScroll: Slow | Medium | Fast
As performed by blitzwater's dad on YouTube
http://youtube.com/watch?v=StD_Q8ZnU0w

|----7--5--7-----7--5--7-----7--5--7-----7--5--7-------------|
|-5-5-5--5--5-5-5-5--5--5-5-5-5--5--5-5-5-5--5---------------|
|--7---7--7--7-6---6--6--6-7---7--7--7-6---6--6--------------|
|------------------------------------------------------------|
|-------------0-----------------------0----------------------|
|-0-----------------------0----------------------------------|

|-3-5-7-0--0-2-3---------------------3-5-7-0--0-2-3--------------5-------------|
|--------0-------0-2-3-2----20--2-----------0-------0-2-3-2----2-5-------------|
|---------0-------------2--2--0--2-----------0-------------2--2--6--6----------|
|------------------------22----2--2-------------------------22---7---7-7-------|
|----------------------0----------------------------------0------7----7--------|
|-0-----0--0-----0-------------------0-----0--0-----0------------5-------------|

|-----------------------------2--------5-------------------------8-----------|
|-2-5-3-2----2-------2-0-------0---0-6---8-6--5-6-----5-6-4-------8----------|
|----------4--2--2-4----0---0---0-0--------------7--7------5---5---8--8------|
|--------------4---------2-2-----2----------------7---------5-5-----10-10----|
|-------------------------2----------5-----5----5---------3--3---------------|
|-2-----2----2---------0------0----------------------------------8-----------|

|---1---10-9----8---------------------------------------------------------|
|-3---3------10---10-8----8-10-3-----3---3--------------------------------|
|----------------------10-------4---4-4-4-4-------------------------------|
|-0------0------0----------------5-5---5----------------------------------|
|---------------------------------5---------------------------------------|
|------------------------------3------------------------------------------|

|---1---10-9----8--------------7-----7------------------------------------|
|-3---3------10---10-8----8-10--9---9-9-----------------------------------|
|----------------------10--------9-9---9-9--------------------------------|
|-0------0------0--------------9--9-----9-9-------------------------------|
|-------------------------------------------------------------------------|
|-------------------------------------------------------------------------|

|---1---10-9----8---------------------------------------------------------|
|-3---3------10---10-8----8-10-3-----3------------------------------------|
|----------------------10-------4---4-4---4-------------------------------|
|-0------0------0----------------5-5---5-5--------------------------------|
|---------------------------------5-----5---------------------------------|
|------------------------------3------------------------------------------|

|-------------------------------|
|-3-5-3-6-5-3-1----1-3----------|
|-3-----3------2--2---2--0------|
|-3-----3-------2----0-0---4----|
|-------------0--0------0--5----|
|--------------------------5----|

|-------------------------------|
|-3-5-3-6-5-3-1----1-3----------|
|-3-----3------2--2---2--0------|
|-3-----3-------2----0-0---4----|
|-------------0--0------0--5----|
|--------------------------5----|

|----3--2--3-----3--2--3---2----3-5----10-8-----7-5----------|
|-3-3-3--3--3-3-3-3--3--3---3------7-------10------5--8-7-8--|
|--2---2--2--2-2---2--2--2---2------7--------9------5--------|
|-0-----------0------------0--0---0--0-----------------------|
|-----------------------------------------0---0--------------|
|-------------------------------------------------5----------|

|-2----3-5----10-8-----7-5--7-8---------------------10-----------------10-12-------|
|--3------7-------10------5---------10-8-10----------11---11-10-11---------14------|
|---2------7--------9------5---10-10-------10-10------12----------12-12-----14-14--|
|-0--0---0--0-----------------10-10---------10------12-12----------12-----14-14----|
|----------------0---0-------------------------------------------------------------|
|------------------------5---------------------------------------------------------|

|-9-7----------------------------------|
|-----10-------------------------------|
|--------9-----------------------------|
|----------11-9-7----------------------|
|-0---------------7--------------------|
|-------------------9-7-5-0------------|

10 comments on Silence Before the Storm

some good tabs, but no

4

some good tabs, but no timings (duration).. thats missing...

GZ !

5

This is the best tab for this tune in my opinion, it sounds so pretty :)

What's GZ?

What's GZ?

Good Zomething

Good Zomething

think it means gratz as in

think it means gratz as in congratulations.

indeed. I thought all can

indeed. I thought all can understood this "GZ"

GZ -> GRATZ -> conGRATulationZ

an "World of Warcraft" player bad habit -_-'

dw it's for pretty much any

dw it's for pretty much any mmorpg not just WoW

on-topic: Very nice tab, and nostalgic. good job!

in what part of the game is

in what part of the game is this song played?

Nostalgia to my ears :)

4

Nostalgia to my ears :)

The gp5 file