Login or Register to remove this ad. | Advertise Here

Lulu's Theme (Final Fantasy X) Guitar Tab

Submitted: Feb 22, 2009 by TheDoomOfAllFires (Last updated: Jan 15, 2010)

5
Average: 5 (4 votes)
Download | Listen
Game: Final Fantasy X
Composer(s): Nobuo Uematsu, Junya Nakano, Masashi Hamauzu
Style: 2 or more instruments, Arrangement, Fingerstyle, Natural harmonics
Series: Final Fantasy

AutoScroll: Slow | Medium | Fast
Final Fantasy X - Lulu's Theme
Arranged by TheDoomOfAllFires, 02/21/2009


Drop-D Tuning
Bpm=35

Capo=3


Guitar #1

     S  S S S E  S  S S S E  S  S S S    S  S S S E  S  S S S E  S  S S S  
E||--3p-0--------3p-0--------3p-0-----|--3p-0--------3p-0--------3p-0-----|
B||-------0-----------0-----------0---|-------0-----------0-----------0---|
G||---------------------0-----------0-|---------------------0-----------0-|
D||-------4---2--2----1---1--2----2---|-------4---2--2----1---1--2----2---|
A||---------2-----------------------2-|---------2-----------------------2-|
D||--2--------------------------------|--2--------------------------------|


       ^                                                              
    E  E  S S S S S S S S S E  S     S S S T  T  S S E  S S E  E  E   
|---------0---7-L-2-----3---5--7-|--10-----8p-7h-8-------------------|
|------0------5-L-----------0----|-----------------------------------|
|*-----0-------------------------|--------------------------------2--|
|*-----4--2-------1---1---2------|---------------0---0---------3-----|
|-----------2-------2------------|-----0-8---------0----4-0-4--------|
|---2----------------------------|---0-------------------------------|


     ^                             ^                   
  E  E  S S S S S S S S S S S S    W                   
--------0---7-L-2-----3---5-7-8-|--1-----------------||
-----0------5-L-----------0-----|--------------------||
-----0--------------------------|--2----------------*||
-----4--2-------1---1---2-------|--0----------------*||
----------2-------2-------------|--------------------||
--2-----------------------------|--------------------||


  S S S S S  S S S Q    S  S S S    S S S S S S  S S S S S S S S S S  
--0------------0-7-8-----------0-|--2--------------2-4-----------5---|
------1---0h-4----------0h-1-3---|------3-----2h-3---0-----------0---|
--2------------2--------2--------|-----------------------4-----------|
----2---2------------------------|----4---4------------4---4---4---4-|
--0------------------------------|--2-------2--------2-------2-------|
---------------------------------|-----------------------------------|


                                       ^            ^        ^                 
  S S S S S S S S E  S S S S S S    E  E  Q.     E  E  E     W                 
---------------------------------|------------------------|--0----------------|
--1---0-----0-1------------0-1---|-----0--L---------1--3--|-------------------|
----------2---2------2---2-----2-|--------L---------0-----|--0----------------|
----2---2-------2-4----2-----2---|--0--4--L------------0--|--2----------------|
--0-------0-------0------0-------|--2--5--L---------3-----|-------------------|
---------------------------------|------------------------|--2----------------|


  S S S S S S S S S S S S S S S S    S  S S S E  S  S S S E  S  S S S  
----------------------------------|--3p-0--------3p-0--------3p-0-----|
------------------------------0---|-------0-----------0-----------0---|
--------------------------0-------|---------------------0-----------0-|
------4---2---2---1---1-----------|-------4---2--2----1---1--2----2---|
----2---2---2---2---2---2---2---2-|---------2-----------------------2-|
--2-------------------------------|--2--------------------------------|


                                           ^                          
  S  S S S E  S  S S S E  S  S S S      E  E  S S S S S S S S S E  S  
--3p-0--------3p-0--------3p-0-----||---------0---7-L-2-----3---5--7-|
-------0-----------0-----------0---||------0------5-L-----------0----|
---------------------0-----------0-||*-----0-------------------------|
-------4---2--2----1---1--2----2---||*-----4--2-------1---1---2------|
---------2-----------------------2-||-----------2-------2------------|
--2--------------------------------||---2----------------------------|


                                         ^                           
   S S S T  T  S S E  S S E  E  E     E  E  S S S S S S S S S S S S  
--10-----8p-7h-8-------------------|--------0---7-L-2-----3---5-7-8-|
-----------------------------------|-----0------5-L-----------0-----|
--------------------------------2--|-----0--------------------------|
---------------0---0---------3-----|-----4--2-------1---1---2-------|
-----0-8---------0----4-0-4--------|----------2-------2-------------|
---0-------------------------------|--2-----------------------------|


  ^                                                     
  W                     S S S S S  S S S Q    S  S S S  
--1-----------------||--0------------0-7-8-----------0-|
--------------------||------1---0h-4----------0h-1-3---|
--2----------------*||--2------------2--------2--------|
--0----------------*||----2---2------------------------|
--------------------||--0------------------------------|
--------------------||---------------------------------|


  S S S S S S  S S S S S S S S S S    S S S S S S S S E  S S S S S S  
--2--------------2-4-----------5---|---------------------------------|
------3-----2h-3---0-----------0---|--1---0-----0-1------------0-1---|
-----------------------4-----------|----------2---2------2---2-----2-|
----4---4------------4---4---4---4-|----2---2-------2-4----2-----2---|
--2-------2--------2-------2-------|--0-------0-------0------0-------|
-----------------------------------|---------------------------------|


     ^            ^        ^                 
  E  E  Q.     E  E  E     W                 
------------------------|--0----------------|
-----0--L---------1--3--|-------------------|
--------L---------0-----|--0----------------|
--0--4--L------------0--|--2----------------|
--2--5--L---------3-----|-------------------|
------------------------|--2----------------|


                            NH    NH       NH                 
  S S S S S S S S S S E     E     E        W                  
-------------------------------------|--<>12----------------||
-------------------------------<>12--|----------------------||
-------------------------<>12--------|----------------------||
------4---2---2---1---1--------------|----------------------||
----2---2---2---2---2----------------|----------------------||
--2----------------------------------|----------------------||





Guitar #2

     S S S S S S S S S S S S S S S S    S S S S S S S S S S S S S S S S  
E||----------------------------------|----------------------------------|
B||----------------------------------|----------------------------------|
G||----------------------------------|----------------------------------|
D||------4---2---2---1---1---2---2---|------4---2---2---1---1---2---2---|
A||----2---2---2---2---2---2---2---2-|----2---2---2---2---2---2---2---2-|
D||--2-------------------------------|--2-------------------------------|


    S S S S S S S S S S S S S S S S    S S S S S S S S S S S S S S S S  
|-----------------------------------|----------------------------------|
|-----------------------------------|----------------------------------|
|*----------------------------------|----------------------------------|
|*------4---2---2---1---1---2---2---|------3---0---0-----------0---0---|
|-----2---2---2---2---2---2---2---2-|----0---0---0---0-4-0-4-0---0---0-|
|---2-------------------------------|--0-------------------------------|


  S S S S S S S S S S S S S S S S    S S S S S S S S S S S S S S S S    
----------------------------------|-----------------------------------||
----------------------------------|-----------------------------------||
----------------------------------|----------------------------------*||
------4---2---2---1---1---2---2---|------3---0---0-----------0---0---*||
----2---2---2---2---2---2---2---2-|----0---0---0---0-4-0-4-0---0---0--||
--2-------------------------------|--0--------------------------------||


  S S S S S S S S S S S S S S S S    S S S S S S S S S S S S S S S S  
----------------------------------|----------------------------------|
------1---0-----------1---0-------|----------------------------------|
--------------2---------------2---|------4-------4-------4-------4---|
----2---2---2---2---2---2---2---2-|----4---4---4---4---4---4---4---4-|
--0---------------0---------------|--2-------2-------2-------2-------|
----------------------------------|----------------------------------|


  S S S S S S S S S S S S S S S S    S S S S S S S S S S S S S S S S  
----------------------------------|----------------------------------|
------0-----------------------1---|----------------------------------|
----------2---2-------2---2-----2-|------4-------3-------4-----0---0-|
----2---2---2---2---2---2---2-----|----4---4---4---4---4---4-----0---|
--0---------------0---------------|--2-------2-------2-------3-------|
----------------------------------|----------------------------------|


  S S S S S S S S S S S S S S S S    S S S S S S S S S S S S S S S S  
----------------------------------|----------------------------------|
----------------------------------|----------------------------------|
----------------------------------|----------------------------------|
------4---2---2---1---1---2---2---|------4---2---2---1---1---2---2---|
----2---2---2---2---2---2---2---2-|----2---2---2---2---2---2---2---2-|
--2-------------------------------|--2-------------------------------|


  S S S S S S S S S S S S S S S S    S S S S S S S S S S S S S S S S  
----------------------------------|----------------------------------|
----------------------------------|----------------------------------|
----------------------------------|----------------------------------|
------4---2---2---1---1---2---2---|------4---2---2---1---1---2---2---|
----2---2---2---2---2---2---2---2-|----2---2---2---2---2---2---2---2-|
--2-------------------------------|--2-------------------------------|


    S S S S S S S S S S S S S S S S    S S S S S S S S S S S S S S S S  
|-----------------------------------|----------------------------------|
|-----------------------------------|----------------------------------|
|*----------------------------------|----------------------------------|
|*------4---2---2---1---1---2---2---|------3---0---0-----------0---0---|
|-----2---2---2---2---2---2---2---2-|----0---0---0---0-4-0-4-0---0---0-|
|---2-------------------------------|--0-------------------------------|


  S S S S S S S S S S S S S S S S    S S S S S S S S S S S S S S S S    
----------------------------------|-----------------------------------||
----------------------------------|-----------------------------------||
----------------------------------|----------------------------------*||
------4---2---2---1---1---2---2---|------3---0---0-----------0---0---*||
----2---2---2---2---2---2---2---2-|----0---0---0---0-4-0-4-0---0---0--||
--2-------------------------------|--0--------------------------------||


  S S S S S S S S S S S S S S S S    S S S S S S S S S S S S S S S S  
----------------------------------|----------------------------------|
------1---0-----------1---0-------|----------------------------------|
--------------2---------------2---|------4-------4-------4-------4---|
----2---2---2---2---2---2---2---2-|----4---4---4---4---4---4---4---4-|
--0---------------0---------------|--2-------2-------2-------2-------|
----------------------------------|----------------------------------|


  S S S S S S S S S S S S S S S S    S S S S S S S S S S S S S S S S  
----------------------------------|----------------------------------|
------0-----------------------1---|----------------------------------|
----------2---2-------2---2-----2-|------4-------3-------4-----0---0-|
----2---2---2---2---2---2---2-----|----4---4---4---4---4---4-----0---|
--0---------------0---------------|--2-------2-------2-------3-------|
----------------------------------|----------------------------------|


  S S S S S S S S S S S S S S S S    S S S S S S S S S S S S S S S S  
----------------------------------|----------------------------------|
----------------------------------|----------------------------------|
----------------------------------|----------------------------------|
------4---2---2---1---1---2---2---|------4---2---2---1---1---2---2---|
----2---2---2---2---2---2---2---2-|----2---2---2---2---2---2---2---2-|
--2-------------------------------|--2-------------------------------|


  ^                  
  W                  
--0----------------||
--0----------------||
--0----------------||
--2----------------||
--2----------------||
--2----------------||





Duration Legend
---------------
W - whole
H - half
Q - quarter
E - 8th
S - 16th
T - 32nd
X - 64th
. - note dotted
|-n-|  - n-tuplets


Tablature Legend
----------------
L - tied note
x - dead note
g - grace note
(n) - ghost note
> - accentuded note
NH - natural harmonic
AH - artificial harmonic
TH - tapped harmonic
SH - semi harmonic
PH - pitch harmonic
h - hammer on
p - pull off
b - bend
br - bendRelease
pb - preBend
pbr - preBendRelease
brb - bendReleaseBend
\n/ - tremolo bar dip
\n - tremolo bar dive
-/n - tremolo bar Release up
/n\ - tremolo bar inverted dip
/n - tremolo bar return
-\n - tremolo bar Release down
S - shift slide
s - legato slide
/ -  slide into from below or out of upwards
\ -  slide into from above or out of downwards
~ - vibrato
W - wide vibrato
tr - trill
TP - tremolo picking
T - tapping
S - slap
P - pop
< - fade in
^ - brush up
v - brush down

1 comment on Lulu's Theme

This tab...

5

This tab is AMAZING! 5!