Login or Register to remove this ad. | Advertise Here

Jecht's Theme (Final Fantasy X) Guitar Tab

Submitted: Aug 30, 2008 by Quick.Samurai.M... (Last updated: Oct 31, 2009)

5
Average: 5 (10 votes)
Download | Listen
Game: Final Fantasy X
Composer(s): Nobuo Uematsu, Junya Nakano, Masashi Hamauzu
Style: 2 or more instruments, Transcription
Series: Final Fantasy

AutoScroll: Slow | Medium | Fast
Final Fantasy X - Jecht's Theme
Tabbed By Quick.Samurai.Mistress, 8/24/08 
   
By the sound of the song there are possibly 3 different guitar parts
Lead and rhythm are used throughout the entire song but a Steel Guitar is also used during the Bottleneck slide solo. 

2 measures into of second guitar strumming E in a blues pattern

E
e|---|-----0-------------------|-----------0-------------|-----0-------------------|-------------------------|
B|---|---0---3---------3-----3-|-----------------3-------|---0---3---2-3---2-0-----|-------------------------|
G|-0-|-1---------------1-----1-|-----------1-----1-----0-|-1-----------------------|-0-1-------------------0-|
D|---|-------------------------|-------------------------|-----------------------2-|-------------------------|
A|---|-------------------------|-------------------------|-------------------------|-------------------------|
E|---|-------------------------|-------------------------|-------------------------|-------------------------|
   a   1 + a 2 + a 3 + a 4 + a   1 + a 2 + a 3 + a 4 + a   1 + a 2 + a 3 + a 4 + a   1 + a 2 + a 3 + a 4 + a 

E
e|-----0-------------------|-------0-----------------|-----0-------------------|-------------------------|
B|---0---3---------3-----3-|-----3-----3-------------|---0---3---2-3---2---0---|-----------------------1-|
G|-1---------------1-----1-|-----1-1---1-----------0-|-1-----------------------|-0-1---------------------|
D|-------------------------|-------------------------|-----------------------2-|-------------------------|
A|-------------------------|-------------------------|-------------------------|-------------------------|
E|-------------------------|-------------------------|-------------------------|-------------------------|
   1 + a 2 + a 3 + a 4 + a   1 + a 2 + a 3 + a 4 + a   1 + a 2 + a 3 + a 4 + a   1 + a 2 + a 3 + a 4 + a 

A7
e|---0-2-0---------0-----0-|-------2---0-------------|--0-2-0----2-3---2-0-----|-------------------------|
B|-2---------------2-----2-|-------2---2-----------1-|2------------------------|-1-2---------------------|
G|-------------------------|-------------------------|-----------------------4-|-----------------------0-|
D|-------------------------|-------------------------|-------------------------|-------------------------|
A|-------------------------|-------------------------|-------------------------|-------------------------|
E|-------------------------|-------------------------|-------------------------|-------------------------|
   1 + a 2 + a 3 + a 4 + a   1 + a 2 + a 3 + a 4 + a   1 + a 2 + a 3 + a 4 + a   1 + a 2 + a 3 + a 4 + a 

E
e|-----0-------------------|-------0-----------------|-----0-------------------|-------------------------|
B|---0---3---------3-----3-|------------3------------|---0---3---2-3---2-0-----|-------------------------|
G|-1---------------1-----1-|-------1----1----------0-|-1-----------------------|-0-1-------------------3-|
D|-------------------------|-------------------------|-----------------------2-|-------------------------|
A|-------------------------|-------------------------|-------------------------|-------------------------|
E|-------------------------|-------------------------|-------------------------|-------------------------|
   1 + a 2 + a 3 + a 4 + a   1 + a 2 + a 3 + a 4 + a   1 + a 2 + a 3 + a 4 + a   1 + a 2 + a 3 + a 4 + a 

B7                                                    A7
e|-----2-------2---------2-|-5---5---4---2---2---4---|---0-2-0---2-3---2-0---2-|-3---3-2---0-----2-------|
B|-0---------0-------0-----|---0---0---0---0---0---0-|-2---------2-2---2-2---2-|-2---2-2---2-----2-------|
G|-------3---------3-------|-------------------------|-------------------------|-----------------------0-|
D|-------------------------|-------------------------|-------------------------|-------------------------|
A|-------------------------|-------------------------|-------------------------|-------------------------|
E|-------------------------|-------------------------|-------------------------|-------------------------|
   1 + a 2 + a 3 + a 4 + a   1 + a 2 + a 3 + a 4 + a   1 + a 2 + a 3 + a 4 + a   1 + a 2 + a 3 + a 4 + a 

E
e|-----0-------------------|-------------------------|-----0-------------------|-----------------------/-|
B|---0---3---------3-----3-|-------------------------|---0---3---2-3---2-0-----|-------------------------|
G|-1--------------/1-----1-|-----------------------0-|-1-----------------------|-3-4---------------------|
D|-------------------------|-------------------------|-----------------------2-|-------------------------|
A|-------------------------|-------------------------|-------------------------|-------------------------|
E|-------------------------|-------------------------|-------------------------|-------------------------|
   1 + a 2 + a 3 + a 4 + a   1 + a 2 + a 3 + a 4 + a   1 + a 2 + a 3 + a 4 + a   1 + a 2 + a 3 + a 4 + a 

Introduce Steel guitar.
Use bottleneck slide guitar technique for solo.

E
e|-7---0-5-----3-0---------|-------------------------|-----0-3---0-5-----0-0---|-----------------------/-|
B|-------------------------|-------------------------|-------------------------|-------------------------|
G|-------------------------|-------------------------|-------------------------|-------------------------|
D|-------------------------|-------------------------|-------------------------|-------------------------|
A|-------------------------|-------------------------|-------------------------|-------------------------|
E|-------------------------|-------------------------|-------------------------|-------------------------|
   1 + a 2 + a 3 + a 4 + a   1 + a 2 + a 3 + a 4 + a   1 + a 2 + a 3 + a 4 + a   1 + a 2 + a 3 + a 4 + a
(Lead)
e|-----------------0-------|-----------------0-------|-----------------0-------|-----------------0-------|
B|-------------3-----------|-------------3-----------|-------------3-----------|-------------3-----------|
G|-----------0-------------|-----------0-------------|-----------0-------------|-----------0-------------|
D|-------------------------|-------------------------|-------------------------|-------------------------|
A|-------------------------|-------------------------|-------------------------|-------------------------|
E|-------------------------|-------------------------|-------------------------|-------------------------|
   1 + a 2 + a 3 + a 4 + a   1 + a 2 + a 3 + a 4 + a   1 + a 2 + a 3 + a 4 + a   1 + a 2 + a 3 + a 4 + a



E
e|-7---0-5-----3-0---------|-----0-3---0-5-----0-0---|-------------------------|-----------------------/-|
B|-------------------------|-------------------------|-------------------------|-------------------------|
G|-------------------------|-------------------------|-------------------------|-------------------------|
D|-------------------------|-------------------------|-------------------------|-------------------------|
A|-------------------------|-------------------------|-------------------------|-------------------------|
E|-------------------------|-------------------------|-------------------------|-------------------------|
   1 + a 2 + a 3 + a 4 + a   1 + a 2 + a 3 + a 4 + a   1 + a 2 + a 3 + a 4 + a   1 + a 2 + a 3 + a 4 + a
(Lead)
e|-----------------0-------|-----------------0-------|-----------------0-------|-----------------0-------|
B|-------------3-----------|-------------3-----------|-------------3-----------|-------------3-----------|
G|-----------0-------------|-----------0-------------|-----------0-------------|-----------0-------------|
D|-------------------------|-------------------------|-------------------------|-------------------------|
A|-------------------------|-------------------------|-------------------------|-------------------------|
E|-------------------------|-------------------------|-------------------------|-------------------------|
   1 + a 2 + a 3 + a 4 + a   1 + a 2 + a 3 + a 4 + a   1 + a 2 + a 3 + a 4 + a   1 + a 2 + a 3 + a 4 + a



A7
e|-12----7-----3---0-----0-|-----------------------/-|-12----7-----3---0-----0-|-----------5/7p0---------|
B|-------------------------|-------------------------|-------------------------|-------------------3---5-|
G|-------------------------|-------------------------|-------------------------|-------------------------|
D|-------------------------|-------------------------|-------------------------|-------------------------|
A|-------------------------|-------------------------|-------------------------|-------------------------|
E|-------------------------|-------------------------|-------------------------|-------------------------|
   1 + a 2 + a 3 + a 4 + a   1 + a 2 + a 3 + a 4 + a   1 + a 2 + a 3 + a 4 + a   1 + a 2 + a 3 + a 4 + a
(Lead)
e|-----------------0-------|-----------------0-------|-----------------0-------|-----------------0-------|
B|-------------3-----------|-------------3-----------|-------------3-----------|-------------3-----------|
G|-----------0-------------|-----------0-------------|-----------0-------------|-----------0-------------|
D|-------------------------|-------------------------|-------------------------|-------------------------|
A|-------------------------|-------------------------|-------------------------|-------------------------|
E|-------------------------|-------------------------|-------------------------|-------------------------|
   1 + a 2 + a 3 + a 4 + a   1 + a 2 + a 3 + a 4 + a   1 + a 2 + a 3 + a 4 + a   1 + a 2 + a 3 + a 4 + a



E
e|-----12------------------|------------------/7---7-|-3-----0--0--------------|-----------------------/-|
B|-----12------------------|-------------------------|-------------------3/5---|-------------------------|
G|-------------------------|-------------------------|-------------------------|-------------------------|
D|-------------------------|-------------------------|-------------------------|-------------------------|
A|-------------------------|-------------------------|-------------------------|-------------------------|
E|-------------------------|-------------------------|-------------------------|-------------------------|
   1 + a 2 + a 3 + a 4 + a   1 + a 2 + a 3 + a 4 + a   1 + a 2 + a 3 + a 4 + a   1 + a 2 + a 3 + a 4 + a
(Lead)
e|-----------------0-------|-----------------0-------|-----------------0-------|-----------------0-------|
B|-------------3-----------|-------------3-----------|-------------3-----------|-------------3-----------|
G|-----------0-------------|-----------0-------------|-----------0-------------|-----------0-------------|
D|-------------------------|-------------------------|-------------------------|-------------------------|
A|-------------------------|-------------------------|-------------------------|-------------------------|
E|-------------------------|-------------------------|-------------------------|-------------------------|
   1 + a 2 + a 3 + a 4 + a   1 + a 2 + a 3 + a 4 + a   1 + a 2 + a 3 + a 4 + a   1 + a 2 + a 3 + a 4 + a



B7                                                    A7
e|-2-----2-----5---2-5---7-|-----5-2---2-------0-----|-0-----------------------|-12-10-7-10-5-3---0---------|
B|-------------------------|-------------------------|-------3/5---------------|----------------------3-0-3-|
G|-------------------------|-------------------------|-------------------------|----------------------------|
D|-------------------------|-------------------------|-------------------------|----------------------------|
A|-------------------------|-------------------------|-------------------------|----------------------------|
E|-------------------------|-------------------------|-------------------------|----------------------------|
   1 + a 2 + a 3 + a 4 + a   1 + a 2 + a 3 + a 4 + a   1 + a 2 + a 3 + a 4 + a   1  +  a  2 + a 3 + a 4 + a
(Lead)
e|-----------------2-------|-----------------2-------|-----------------0-------|----------------------------|
B|-------------0-----------|-------------0-----------|-------------0-----------|----------------------------|
G|-----------2-------------|-----------2-------------|-----------0-------------|----------------------------|
D|-------------------------|-------------------------|-------------------------|----------------------------|
A|-------------------------|-------------------------|-------------------------|----------------------------|
E|-------------------------|-------------------------|-------------------------|----------------------------|
   1 + a 2 + a 3 + a 4 + a   1 + a 2 + a 3 + a 4 + a   1 + a 2 + a 3 + a 4 + a   1  +  a  2 + a 3 + a 4 + a



E                                                                               B7
e|-0-----------------------|-------------------------|-------------------------|-------------------------|
B|-------------------------|-------------------------|-------------------------|-------------------------|
G|-------------------------|-------------------------|-------------------------|-----------------------0-|
D|-------------------------|-------------------------|-------------------------|-------------------------|
A|-------------------------|-------------------------|-------------------------|-------------------------|
E|-------------------------|-------------------------|-------------------------|-------------------------|
   1 + a 2 + a 3 + a 4 + a   1 + a 2 + a 3 + a 4 + a   1 + a 2 + a 3 + a 4 + a   1 + a 2 + a 3 + a 4 + a
(Lead)
e|-----------------0-------|-----------------0-------|-----------------0-------|-----------------2-------|
B|-------------3-----------|-------------3-----------|-------------3-----------|-------------0-----------|
G|-----------0-------------|-----------0-------------|-----------0-------------|-----------2-------------|
D|-------------------------|-------------------------|-------------------------|-------------------------|
A|-------------------------|-------------------------|-------------------------|-------------------------|
E|-------------------------|-------------------------|-------------------------|-------------------------|
   1 + a 2 + a 3 + a 4 + a   1 + a 2 + a 3 + a 4 + a   1 + a 2 + a 3 + a 4 + a   1 + a 2 + a 3 + a 4 + a

Lead Guitar resumes main riff

E
e|-----0-------------------|-----------0-------------|-----0-------------------|-------------------------|
B|---0---3---------3-----3-|-----------------3-------|---0---3---2-3---2-0-----|-------------------------|
G|-1---------------1-----1-|-----------1-----1-----0-|-1-----------------------|-0-1-------------------0-|
D|-------------------------|-------------------------|-----------------------2-|-------------------------|
A|-------------------------|-------------------------|-------------------------|-------------------------|
E|-------------------------|-------------------------|-------------------------|-------------------------|
   1 + a 2 + a 3 + a 4 + a   1 + a 2 + a 3 + a 4 + a   1 + a 2 + a 3 + a 4 + a   1 + a 2 + a 3 + a 4 + a 

E
e|-----0-------------------|-------0-----------------|-----0-------------------|-------------------------|
B|---0---3---------3-----3-|-----3-----3-------------|---0---3---2-3---2---0---|-----------------------1-|
G|-1---------------1-----1-|-----1-1---1-----------0-|-1-----------------------|-0-1---------------------|
D|-------------------------|-------------------------|-----------------------2-|-------------------------|
A|-------------------------|-------------------------|-------------------------|-------------------------|
E|-------------------------|-------------------------|-------------------------|-------------------------|
   1 + a 2 + a 3 + a 4 + a   1 + a 2 + a 3 + a 4 + a   1 + a 2 + a 3 + a 4 + a   1 + a 2 + a 3 + a 4 + a 

4 comments on Jecht's Theme

great

best tab on the site

you couldnt post a tab with the rythm stumming on it could you? thanks

there will be a small amount

12.75

there will be a small amount of FF guitarist that can play this but luckily i can play this. the tab on ultimate guitar is fully wrong but this one is the jackpot. nice tab man!!!

LOL

this is very easy to play, for any standard of guitarist

what is hard about it? the changes are easy

Really easy and sounds

Really easy and sounds great~!

Keep up the good work~!!!!