Login or Register to remove this ad. | Advertise Here

How Much Longer (Final Fantasy X) Guitar Tab

Submitted: Mar 29, 2009 by Shru (Last updated: Jul 03, 2010)

5
Average: 5 (5 votes)
Download | Listen
Game: Final Fantasy X
Composer(s): Nobuo Uematsu, Junya Nakano, Masashi Hamauzu
Style: Arrangement, Fingerstyle, Natural harmonics
Series: Final Fantasy

AutoScroll: Slow | Medium | Fast
                                
How Much Longer                                 

Nobuo Uematsu - arranged by Pot Hocket
 


Track 1

     ^                           ^                       
     E.  Q    E  E  E  E  S    S E  E  E  E  E  E  E  S  
E||-------------------------|----3--------3--2----------|
B||--------------0-----1----|----3-----3--------3-------|
G||--2--------------------2-|--L-2--2--------------2----|
D||--2---2----2-----2-------|----0----------------------|
A||--0----------------------|---------------------------|
E||-------------------------|-------------------------3-|


                                ^                        
  S E  E  E  E  E  E  E  S    S E  E  E  E  E  E  E   S  
---------------------------|----0-----------------------|
----------------0-----1----|----1-----3-----3-----1p--0-|
----------2--------------2-|--L-2-----------0-----------|
-------2-----2-----2-------|----3--3-----3-----0--------|
---------------------------|----------------------------|
--L-1----------------------|----------------3-----------|


  ^                           ^                       
  E.  Q    E  E  E  E  S    S E  E  E  E  E  E  E  S  
-------------------------|----3--------3--2----------|
--------------0-----1----|----3-----3--------3-------|
--2--------------------2-|--L-2--2--------------2----|
--2---2----2-----2-------|----0----------------------|
--0----------------------|---------------------------|
-------------------------|-------------------------3-|


                                ^           ^           
  S E  E  E  E  E  E  E  S    S E  E  E  E  E  E  E  S  
---------------------------|----0----------------------|
----------------0-----1----|----1-----3-----0--------0-|
----------2--------------2-|--L-2-----------1-----1----|
-------2-----2-----2-------|----3--3-----3--2--2-------|
---------------------------|---------------------------|
--L-1----------------------|----------------0----------|


    ^                                                 
  S E  E  E  E  E  Q    S    S E  E  E  E  E  Q    S  
--------------------------|--------------------------|
--L-1--------0----------0-|--L-1--------0----------0-|
----2-----2-----2---------|----------2-----2---------|
-------2-----------2------|-------2-----------2------|
----0-----------0---------|----0-----------0---------|
--------------------------|--------------------------|


    ^           ^                           ^         
  S E  E  E  E  E  E  E  S    S E  E  E  E  Q.     S  
----------------------0--1-|--L-3--------------------|
--L-------0--1--3-----1--3-|--L-1-----0--3--1------L-|
----2-----------0----------|-------2--------2------L-|
----2--2--L----------------|----------------2------L-|
----0----------------------|----------------0------L-|
----------------3--3-------|----1--------------------|


    ^           ^                           ^          
  S E  E  E  E  E  E  E  S    S E  E  E  E  Q    E  S  
----------------------0--1-|--L-3--------0-------0--1-|
--L-------0--1--3-----1--3-|--L-1-----0-----1----1--3-|
--L-2-----------0----------|-------2--------2---------|
--L-2--2--L----------------|----------------2---------|
--L-0----------------------|----------------0---------|
----------------3--3-------|----1---------------------|


    ^                                                   
  S E  E  E  E  E  E  E  S    S E  E  E  E  E  E  E  S  
--L-3-----3--5--3-----1--0-|--L-0--------------------0-|
--L------------------------|----------3--1--0-----3--0-|
----5----------------------|----------------1-----2----|
----5--5-------------------|-------2--------2----------|
----3--------------2-------|----0----------------------|
----------------3----------|----------------0--0-------|


                                 ^           ^          
  S E  E  E   E  E  E  E  S    S E  E  E  E  Q    E  S  
----------------------------|---------------------0--1-|
--L-1-----3p--1--3-----1--0-|--L-1--------0-------1--3-|
----------2------1----------|----2--2--2--1--2---------|
-------2------2-----2-------|----2-----------2---------|
----0-----------------------|----0-----------0---------|
----------------------------|--------------------------|


    ^                                                      
  S E  E  E  E  E  E   E  S    S   E   E  E  E  Q    E  S  
----3-----3--5--3-----10--7-|--L-7g8---------3--5---------|
--L-------------------------|-------------------1-------0-|
----5-----------------------|-------------------2----2----|
----5--5--------------------|---------10--9---------------|
----3--------------2--------|-----------------------------|
----------------3-----------|------8------------1---------|


                                            ^         
  S E   E  E  E  Q    E  S    S E  E  E  E  Q.     S  
----0---------0--1----0----|----0--------------------|
--L-1p--0--------1-------3-|--L-1--0--1--3--3------L-|
-----------2-----2----2--4-|----------------1------L-|
---------------------------|-------------------------|
----0----------------------|----0--------------------|
-----------------1---------|----------------0------L-|


    ^           ^                           ^         
  S E  E  E  E  E  E  E  S    S E  E  E  E  Q.     S  
----------------------0--1-|--L-3--------------------|
--L-------0--1--3-----1--3-|--L-1-----0--3--1------L-|
--L-2-----------0----------|-------2--------2------L-|
----2--2--L----------------|----------------2------L-|
----0----------------------|----------------0------L-|
--L-------------3--3-------|----1--------------------|


    ^           ^               ^                        
  S E  E  E  E  E  E  E  S    S E  E  E  S S E  E  E  S  
----------------------0--1-|--L-3--------1-0-3-----0--1-|
--L-------0--1--3-----1--3-|--L-1-----------------------|
--L-2-----------0----------|----0-----0---------0-------|
--L-2--2--L----------------|-------2--------------------|
--L-0----------------------|----3-----------------------|
----------------3--3-------|-----------------3----------|


    ^                                                   
  S E  E  E  E  E  E  E  S    S E  E  E  E  E  E  E  S  
--L-3--------3--3--------3-|-------------3--3--------3-|
----1-----1--1--3--------1-|--0-1-----------------1----|
----0--0--------------0----|----------2--------0-------|
-------------------0-------|-------2-------------------|
----3----------------------|----0----------------------|
----------------3----------|----------------3----------|


    ^           ^               ^           NH      NH   
  S E  E  E  E  E  E  E  S    S H           Q       E.   
--L-1--------1--0----------|----0--------<>12-----------|
----1-----1-----1-----1----|----0----------------<>12---|
----2--2-----2--2--2-----2-|--L-1-----------------------|
---------------------------|----2-----------------------|
----------------0----------|----2-----------------------|
----1----------------------|----0-----------------------|


  S E  E  E  E  E  E  E  S    S E  E  E  E  E  E  E  S  
-------------0--------0--1-|--L-0--------0--------0--1-|
--L-------3-----3-----1--3-|--L-1--3--1-----3----------|
----2-----2-----0----------|----0----------------------|
-------2--------0--0-------|-------------------0-------|
----0----------------------|----3----------------------|
----------------3----------|----------------3----------|


                                            ^         
  S E  E  E  E  E  E  E  S    S E  E  E  E  Q    E.   
--L-0----------------------|-------------------------|
----------3--1--3--------0-|--L-1--------0--0--------|
----------------1-----1----|----------2-----1--------|
-------2--------2--2-------|-------2--------2--------|
----0----------------------|----0----------------2---|
----------------0----------|----------------0--------|


    ^                           ^                       
  S E  E  E  E  E  E  E  S    S E  E  E  E  E  E  E  S  
-------------0--------0--1-|--L-3-----1--0-------------|
----------3--0--3-----1--3-|--L-1-----------3--------3-|
----2-----2-----0----------|----0-----------------0----|
----2--2--------0--0-------|-------2-----------0-------|
--L-0----------------------|----3----------------------|
----------------3----------|----------------3----------|


  S E  E  E  E  E  E  E  S    S E  E  E  E  Q    E  S  
----0----------------------|---------------------0--1-|
--L-1-----3--1--0--------0-|--L----------0-------1--3-|
----2-----------------2--1-|----2-----2-----2---------|
-------2-----------2-------|-------2------------------|
----0----------------------|----0---------------------|
----------------0----------|--------------------------|


    ^           ^                             ^           
  S E  E  E  E  E  E  E  S    S   E  E  E  E  E  E  E  S  
--L-3-----0--3--3--0--1----|---------------0--1----------|
--L-1-----1-----3--------3-|--L-3g5--3--------1--1--3--1-|
----0--0--------0--0-------|------------5-----2----------|
---------------------------|-----------------------------|
----3----------------------|------0----------------------|
----------------3----------|------------------1----------|


                                ^                        
  S E  E  E  E  E  E  E  S    S E  E  E   E  E  E  E  S  
----0--------0--------0----|----------------------------|
--L-------1--------3-----3-|--L-1-----3p--1--0--------0-|
-------2-------------------|----2------------1-----2----|
---------------------------|----2--2------------2-------|
----0----------------------|----0-----------------------|
----------------3----------|-----------------0----------|


    ^            ^                ^           ^          
  S E  E  E   E  E  E  E   S    S E  E  E  E  Q    E  S  
-----------------------------|----0--------0--1----0--1-|
--L-1-----0h--1--3-----1h--3-|--L-1-----3-----1----1--3-|
----2-----2------0-----------|----0--0--------2---------|
----2--2------------0--------|--------------------------|
----0------------------------|----3---------------------|
-----------------3-----------|----------------1---------|


    ^                                                    
  S E  E  E  E  E  E  E  S    S E  E  E  S S E  E  E  S  
--L-0--------0--------0--1-|--L-3-----3---------1--0--1-|
--L-1-----3-----3----------|----------1----1-------0----|
----0-----------0----------|----------0----0----0-----0-|
-------2-----------0-------|-------2-----2--------------|
----3----------------------|----3------------2----------|
----------------3----------|----------------------------|


                                 ^                       
  S E  E  E  S S E  E  E  S    S E  E  E  E  E  E  E  S  
--L-0-----3----0-0-----3----|----1--------1-----0-----0-|
----------1--3---------0----|----1-----1-----------3----|
----------------------------|----2--2-------------------|
-------2------------0-------|---------------------------|
----0-----------------------|----------------0----------|
-----------------3--------L-|--L-1----------------------|


    ^           NH      NH                               
  S H           Q       E.     S E  E  E  E  E  E  E  S  
--L----------<>12-----------|-------------0--------0--1-|
----3----------------<>12---|--L-------3--1--3-----1----|
----1-----------------------|----2-----4-----0----------|
----2-----------------------|----2--2-----------0-------|
----------------------------|----0----------------------|
----0-----------------------|----------------3----------|


                ^                                     
  S E  E  E  E  Q.     S    S E  E  E  E  E  E  E  S  
--L-3--------1--0------L-|--L----------0-------------|
----1-----0-----1------L-|--L-------3--1--3-----1--0-|
-------2--------2------L-|--L-2-----4-----0----------|
-------------------------|----2--2-----------0-------|
----------------0------L-|--L-0----------------------|
----1--------------------|----------------3----------|


    ^                                                          
  S E  E  E  E  E  E  E  S    S S S S S S S S S S S S S S S S  
---------------------------|----------------------------------|
--L-1--------1--3-----1--3-|--L-----1-----1-----1-----1-----1-|
----2-----2--------0-------|------0-----0-----0-----0-----0---|
----3--3-------------------|----------2-----------2-----------|
---------------------------|----3-----------3-----------------|
----1-----------3----------|----------------------------3-----|


  S S S S S S S S S S S S S S S S    S S S S S S S S S S S S S S S S  
----------------------------------|----------------------------------|
------1-----1-----1-----1-----1---|----1-----1-----1-----1-----1-----|
----0-----0-----0-----2-----2-----|--2-----2-----2-----2-----2-----2-|
--0-----------0-----------2-------|------2-----------3-----------3---|
--------------------0-----------0-|----------------------------------|
--------3-------------------------|------------1-----------1---------|


  S S S S S S S S S S S S S S S S    S S S S S S S S S S S S S S S S  
----------------------------------|----------------------------------|
--1-------1-------1-------1-------|--1-------1-------1-------1-------|
----2---0---0---0---0---0---0---0-|----0---0---0---0---0---0---0---0-|
--------------2---------------2---|--------------0---------------0---|
------3---------------3-----------|----------------------------------|
----------------------------------|------3---------------3-----------|


  S S S S S S S S S S S S S S S S    S S S S S S S S S S S S S S S S  
----------------------------------|----------------------------------|
--1-------1-------1-------1-------|--1-------1-------1-------1-------|
----0---2---2---2---2---2---2---2-|----2---2---2---2---2---2---2---2-|
--------------2---------------2---|--------------3---------------3---|
------0---------------0-----------|----------------------------------|
----------------------------------|------1---------------1-----------|


      ^                 ^                              
  S S E  E  E  E  E  E  E     E  E  E  E  E  E  E  E   
------0--1--0--3--1--0--0--|-----0--1--0--------------|
--1-3-1-----------1-----1--|--3--1-----1--1--3--1--3--|
------0--------0-----0-----|--------0--------------0--|
------------2--------------|--------------------------|
------3-----------------3--|--------------------------|
---------------------------|-----------------3--------|


  E  E  E  Q    E  E  E     E  E   E  E  E  E  E  E   
-----------0-------------|---------------------------|
--0--1--0-------------0--|-----1p--0--------------1--|
-----------0-------------|-----2---------2-----------|
-------------------0-----|--0--2------2--------2-----|
----------------2--------|-----0------------0-----0--|
-----------3----------3--|---------------------------|


  E  E  E  E  E  E  E  E     E  E  E  E  E  E  E  E   
--------0--------1--0--1--|--5-----------3--5--7--8--|
--3--1--1-----0-----------|--------------------------|
--2--------2--------------|--------------------------|
-----2--------------------|--------------------------|
--------------------------|--------3-----------------|
-----------------1--------|-----1-----3--------7-----|


  E  E  E  E  E  E  E  E     E  E  E  E  E  E  E  E   
--7--8--------3-----------|--0--1--3--1--0--3--------|
-----------------------3--|--------------------0-----|
--------------------0-----|--------0--------------0--|
-----------5-----2--------|-----2-----2--------------|
--------7-----3-----------|--3-----------3-----------|
-----8--------------------|-----------------3--------|


  E  E  E  E  E  E  E  E     E  E  E  E  E   E   E  E    
-----------------0--1--0--|-----------------------------|
--3-----------3-----------|--3--3--------1p--0h--1------|
-----0--------------0-----|-----------2----------2--2p--|
--------0--------0-----0--|--------2---------2----------|
--------------2-----------|--2--0--------0----------0---|
--3--------3--------------|-----------------------------|


                                                           ^                
  E   E  E  E   E  E  E  E     Q.     E  E  E  E  E     E  H.           E   
----------------------------|------------------------|-----3------------L--||
------------0h--1--1--------|------------------0--1--|--3--5------------L--||
--0h--2---------------------|--2---------0--2--------|-----5------------L--||
---------2---------------3--|------------------------|-----5------------L--||
----------------------3-----|------------------------|-----3------------L--||
-------------------1--------|---------3--------------|---------------------||


Duration Legend
---------------
W - whole
H - half
Q - quarter
E - 8th
S - 16th
T - 32nd
X - 64th
. - note dotted
|-n-|  - n-tuplets


Tablature Legend
----------------
L - tied note
g - grace note
NH - natural harmonic
h - hammer on
p - pull off
^ - brush up
v - brush down

5 comments on How Much Longer

Already one of the best tabs

5

Already one of the best tabs on the site.

wow, whats this ? never heard

5

wow, whats this ? never heard of it but it's incredible

This one isn't in the game...

This one isn't in the game... is it? I've listened to the OST so many times (and played the game a number), but I've never heard this one before.

That's OCRemix's motto: if

That's OCRemix's motto: if you can recognize the original song, it isn't OCR!(tm)

http://ocremix.org/remix/OCR01518/ says "Song(s): 'On That Day, Five Years Ago...', 'Suteki da ne'", so it's an arrangement of those two, and only the latter is actually from FFX.

Oh ok, I didn't realise it

Oh ok, I didn't realise it was a remix. Thanks :)