Login or Register to remove this ad. | Advertise Here

Eternity: Memory of Lightwaves (Final Fantasy X-2) Guitar Tab

Submitted: Jul 17, 2008 by delgelato (Last updated: Oct 18, 2009)

0
Download | Listen
Game: Final Fantasy X-2
Composer(s): Noriko Matsueda, Takahito Eguchi
Style: Arrangement, Fingerstyle
Series: Final Fantasy

AutoScroll: Slow | Medium | Fast
TUNING:

f
c
g
D
A
D'

Raise the bottom "e" to be an "f"
And the bottom "b" to be "c"
Lower the top "E" to "D"
The rest is normal.


Intro                                      4x       4th Ending
|-0-------0-----------0-----------0-----------0---|-----------|
|-----------0-----------------------0-------------|---------0-|
|-------------------0---7-----------------------3-|-----------|
|-----1-3---------3-----------5-7---------2-3-----|-----2-3---|
|---1-----------3-----------5-----------0---------|---0-------|
|-1-----------3-----------5-----------0-----------|-0---------|



0:47
Chorus

|-5---4-0-----5---4-0---------4-4-----------------|
|-----------------------0-----0-----------------0-|
|---------0-3-------0---8-7---0-2-3------------2--|
|-----1-3---------3---7---8-0-------------2-3-----|
|---1-----------3-----------------------0---------|
|-1-----------3-----------5-----------0-----------|



|-5---4-0-----5---4-0---------7-7---7-7---9--------|
|-----------------------0-------------------10---0-|
|---------0-3-------0---8-7---0-----7--------------|
|-----1-3---------3---7-----0---7-8------------7---|
|---1-----------3-----------------------0-7-8------|
|-1-----------3-----------5-----------0------------|




|-5---4-0-----5---4-0---------4-4---2-4------------|
|-----------------------0-----------2------------0-|
|---------0-3-------0---8-7---0-2-3-----------2----|
|-----1-3---------3---7-----0-------------2-3------|
|---1-----------3-----------------------0----------|
|-1-----------3-----------5-----------0------------|




|-5---4-0-----5---4-0---10-9---10-12--9--7---9--------|
|-----------------------0----------------------10---0-|
|---------0-3-------0----------0------7---------------|
|-----1-3---------3---7------0----7-8------------7----|
|---1-----------3--------------------------0-7-8------|
|-1-----------3------------5-------------0------------|





1:23
Solo(Version A) ( All Piano )

|-0---0-----2-0-----------------0-----|
|---------------------------2-3---3-2-|
|-----------0-3-------------0---2-----|
|-------0-1-------------0-3-----------|
|---0-3-------------1-3---------------|
|-0---------------0-------------------|


|-----------------------------0-------------------|
|-0---2-2-----0-----------0-----2-----0-------0---|
|-------0-2-3---2-3-0-2---------0-2-3---2-0-3---3-|
|---0-3-----------------3-----3-------------------|
|---------------------------3-------------------1-|
|-5-----------------------3-----------------------|

  I I I I I I I I I I I I I I I I I I I I I I I I I                    
|-----------------------------------------------0--|  
|-0---2-----------------------------0--------------|  
|-------3---3-----2-----0-----------------3-----2--|  
|-------0-1---0-1---0-1-------0-2-3---2-3---2-3----|  
|---0-3---------------------0----------------------|  
|-0-----------------------0------------------------|  


|-0---2-------------------2---4-4---4-4---5-7-----|
|-----------------------------------------------5-|
|-------3-------------0-2-------2-------------5---|
|-----1-3---------1-3---------------3-----3-7-----|
|---1-----------1-----------3-----3-----3---------|
|-1-----------------------3-----------------------|


|-----------------0----------12-|
|-------------------------12----|
|-----------5---5------10-------|
|-----3---3---3-----10----------|
|---3---3-----------------------|
|-3-----------------------------|

Back to Chorus



ending                                          2x
|-0-------0-----------0--|---------0-----------0---|--------------0---12-|
|-----------0------------|-----------0-------------|------------2---12---|
|-------------------0---7|-----------------------3-|------0-2-3----------|
|-----1-3---------3------|-----5-7---------2-3-----|---0-----------------|
|---1-----------3--------|---5-----------0---------|---------------------|
|-1-----------3----------|-5-----------0-----------|-5-------------------|






Alternative solo:
Solo (Version B) ( Album [With Violin] ) Just the piano part. 
Ask your friend to play the violin for you =)


|----------------------------------12---------|
|-------------------------5-------12----------|
|-10-----------------------------10-----------|
|-8-----------------10-12-7-----10------------|
|-8-----------10-13-------5-------------------|
|-8--------10---------------------------------|


|---------------------------12---------0-------|
|--------------10--9--------12-----------------|
|-7----------------10-------10-----------3-----|
|-5--------8-10----7-----10----------------3---|
|-5-------10-----------------------------------|
|-5------8---------7---------------------------|


|-----5---0-4---0-2---0-4---0-5---0-4---0-5---0-7---0 fast---|
|-------0-----0-----0-----0-----0-----0-----0-----0----------|
|------------------------------------------------------------|
|------------------------------------------------------------|
|-1-3---------------5-------------------6--------------------|
|------------------------------------------------------------|


|---5---0-4---0-5---0-7---------|
|------0-----0-----0------------|
|-------------------------------|
|---------3-----------3---------|
|-------------------------------|
|---3-----------3---------------|

7 comments on Eternity: Memory of Lightwaves

::taps chin thoughtfully::

::taps chin thoughtfully::

You know, I'm not sure if this midi is completely accurate...granted I haven't heard the original in awhile but I can usually recall music decently, the lower voice sounds off in parts...

I won't judge the arrangement itself until I get a chance to play it through, though, so I can't comment on that yet.

The midi is just a random

The midi is just a random one I picked up at vgmusic.com. It doesn't relate to the arrangement at all.

oh ok, I thought it was the

oh ok, I thought it was the midi used to base this arrangement off of, I was at my gf's house and didn't have my guitar around to play it so I couldn't check.

Dx why matching it with the

Dx why matching it with the midi ? T_T I made this based on the original. Remember I raise the bottom 2 string to "f" and "c", if that's why you think it sounds off..

Anyways, what's with "limpNinja" ? O_o

No, like I said I wasn't

No, like I said I wasn't commenting on the arrangement, just the midi file that was there with it. I thought that was the midi you used to base this arrangement off of (which many people, including myself, do at times so there's no problem with that)

I hadn't had a chance to play the arrangement yet, I was just worried because if the midi was wrong, and you used the midi to create this, then this would be wrong too. Now that I'm home I see it's different though, which is good.

As far as the arrangement goes it's pretty good and, indeed, true to the original. It will take time to work this one up, though, as it goes all over the place. Still though, I have to give you props for effort because this one is the most true to the original I have heard thus far. :) Nice job.

My only complaint (besides some of the akward passages) is the tuning, but even that I understand because I know sometimes the only way to get something to sound right and not be completely impossible is to have some strange non-standard tuning (besaid anyone?) so it's not a major gripe, just comment. :)

Heh thanks. Well the only

Heh thanks.

Well the only reason why I raise those 2 bottom strings is just for the first part of the "chorus". I just want to use the lower "F" instead of the "f" in the 3rd string, when playing the 6th's string 6th's fret, and that was impossible. So i made the 6th's fret become 5th fret. Everything else is playable with standard tuning except that 1st part, and it's also easier to do the intro with this tunning.

@Archard
Could you change the tabber name to "delgelato" instead of that random name "LimpNinja" please? >_< Thanks

cheers

Sorry about that... fixed.

Sorry about that... fixed.