Login or Register to remove this ad. | Advertise Here

The Sight of Spira (Final Fantasy X) Guitar Tab

Submitted: Oct 02, 2007 by Kabukibear (Last updated: Sep 18, 2009)

4.875
Average: 4.9 (8 votes)
Download | Listen
Game: Final Fantasy X
Composer(s): Nobuo Uematsu, Junya Nakano, Masashi Hamauzu
Style: Arrangement, Fingerstyle
Series: Final Fantasy

This song is also called Spira Unplugged

AutoScroll: Slow | Medium | Fast
Sight of Spira
~Final Fantasy X~
Composed By: Nobuo Uematsu
Arranged By: Justin Lincoln

Drop D Tuning

     Q    E  E  E  E  E  E     E  E  E  E  E  E  Q
E||-------0-----------------|--------0----------------|
B||-------1--------3--------|--------1-----------3----|
G||-------2--------4--------|-----0-----0--------4----|
D||----------2--------0-----|-----------------0-------|
A||--0-------------------3--|--L----------------------|
D||-------------5-----------|--------------5----------|

  E  E  E  Q    E  E  E     E  E  E  Q    E  E  E     Q    E  E  E  E  E  E
--------0----------------|-------------------2--3--|----------------------3--|
----------------0--------|----------------3--------|-------1--0-----3--------|
--------2-------0--------|-----------2-------------|--2----2--------4--------|
-----2-------------2-----|--------4----------------|----------2--------0-----|
-------------------------|-----3-------------------|--0-------------------3--|
--3--------2----------0--|--L----------------------|-------------5-----------|

                                                            ,----Tap----,
  E  E  E  E  E  E  E  E     E  E  E  E  E  E  E  E     Q    Q    Q    Q
--------0--0--------0-----|-----------------------5--|----------------------|
--------1--------3-----3--|--1-----------------0-----|----------------------|
-----0--------------2-----|--------------0--2--------|----------------------|
--------------------2-----|--------2--3-----------0--|----------------------|
--------------------------|-----3--------------------|-------x----x----x----|
--------------3-----------|--0--------------------2--|----------------------|

  E  E  Q       E  E  E  E  E  E  E  E     E  E  E  E  E  E  Q
-------------|--------------------------|--0-----1--0-------------|
-----3-------|--------0--1--0-----1--3--|--------------3----------|
-----0-------|--2-----------------------|--------0----------------|
-----0--2----|--------2--------0--3-----|-----2-----2-----0--3----|
-------------|--0--3-----------------3--|-------------------------|
-----2-------|--------------5-----------|--------------5----------|

  E  E  E  E  E  E  E  E     E  E  E  E  E  E  E  E
--0-----------------------|--------------------------|
--------3--1--0-----------|--1-----0-----------------|
--------------------------|-----------2--0-----------|
--------2-----------0-----|--------2--------0--------|
-----3-----------2-----0--|-----3--------------2-----|
--3--------2--------------|-----------------------5--|

  E  E  E  E  E  E  E  E     E  E  E  E  E  E  Q       E  E  E  E  E  E  E  E
--------------------------|--0-----1--0-------------|--0-----------------------|
--------0--1--0-----1--3--|--------------3----------|--------3--1--0-----------|
--2-----------------------|--------0----------------|--------------------0-----|
--------2--------0--3-----|-----2-----------0--3----|--------2-----------0-----|
--0--3-----------------3--|-------------------------|-----3-----------2--------|
--------------5-----------|--------------5----------|--3--------2-----------0--|

  E  E  E  E  E  E   E   E      E  E   E  E  E  E  E  E
------------------------10--|--12-----10--8--7-----3-----|
--------------------10------|-------------------0--------|
--0--2--2--2--L--7----------|------9---------------0-----|
--------4-------------------|----------------------------|
-----3----------------------|---8---------------------2--|
----------------------------|----------------------------|

  ^        ^
  E  E  E  E  Q    Q       E  E  E  E  E  E  E  E     E  E  E  E  E  E  Q
--3--5--5----------0----|--------0-----------------|--0-----1--0-------------|
--1--------3--L---------|--------0--1--0--3--1--3--|--1-----3--1--3----------|
--2--------4------------|--2-----0--2--0--4--2--4--|--------0-----4----------|
------------------------|--------2--------0--3-----|-----2-----------0--3----|
------------------------|--0--3--------------------|-------------------------|
--0--------5------------|--------------5-----------|--------------5----------|

  E  E  E  E  E  E  E  E     E  E  E  E  E  E  S S E
--0-----------------------|---------------------------|
--------3--1--0-----------|--1-----0--------3--0------|
--------------------------|-----------2--0-------2-0--|
--------2-----------0-----|--------2--------0---------|
-----3-----------2-----0--|-----3--------------2------|
--3--------2--------------|------------------------5--|

  E  E  E  E  E  E  E  E     E  E  E  E  E  E  Q       E  E  E  E  E  E  E  E
--------0-----------------|--0-----1--3-------------|--0-----------------------|
--------0--1--0--3--1--3--|--1-----3--5--3----------|--------3--1--0-----------|
--2-----0--2--0--4--2--4--|--------0-----4----------|--------------------0-----|
--------2--------0--3-----|-----2-----------0--3----|--------2-----------0-----|
--0--3--------------------|-------------------------|-----3-----------2--------|
--------------5-----------|--------------5----------|--3--------2-----------0--|

                                ^           ^
  E  E  E  E  E  E   E   E      Q     E  E  Q    Q
------------------------10--|--12----10--8--7----3----|
--------------------10------|--10-----------0---------|
--0--2--2--2--L--7----------|--10-----------0---------|
-----2--4-------------------|-------------------------|
----------------------------|---0---------------------|
----------------------------|---------------5---------|

                            ^        ^             ^         ^
  E  E  E  Q    E  E  E     H        Q    E  E     Q    Q    H
--3--5--5----------------|----------------------|--0----3-------------|
----------------3--------|--1--------3----1--3--|--1---------3--------|
-----------2-------2--0--|--2--------4----------|--0---------4--------|
--------4----------------|--3--------5----------|--2---------0--------|
-----3-------------------|--0--------0----------|--3------------------|
--0----------------------|----------------------|------------5--------|

  ^                         ^         ^
  Q    E  E  E  E  E  E     Q    Q    Q    E  E     Q    Q    Q    Q
--0----------------------|--0----3---------------|----------------------|
--1----3--1-----1--------|--1---------3----1--0--|----------------------|
--2----------2-----5--7--|--0---------4----------|--2--------------5----|
--2----------------------|--2---------0----------|------------3---------|
--0----------------------|--3--------------------|-------3--------------|
-------------3-----5-----|------------5----------|--3--------------5----|

  ^         ^           ^                         ^         ^
  Q    Q    H           Q    E  E  E  E  E  E     Q    Q    Q    Q
--0----3-------------|--0----------------------|--0----3----7---------|
--1---------3--------|--1----3--1-----1--------|--1---------0----8----|
--0---------4--------|--2----------2-----5--7--|--0---------0---------|
--2---------0--------|--2----------------------|--2-------------------|
--3------------------|--0----------------------|--3---------7---------|
------------5--------|-------------3-----5-----|----------------------|

                           ^
  E  E  E  Q    Q    E     Q    Q    Q    Q       E  E  E  E  E  Q    E
--5---------------------|-------5----3----1----|--0----------------------|
----------------1-------|--1---------0---------|----------------------0--|
---------------------2--|--2--------------2----|--0--------0--L--2-------|
--------3--7------------|--3-------------------|--------0----------------|
-----3------------------|--3-------------------|-----2-------------------|
--3---------------------|----------------------|--2----------------------|

  ^                                                 ^
  Q    Q    Q    Q       E  E  E  E  E  E  E  E     H        Q    Q
-------3----0---------|--------------------------|--0------------------|
--3--------------0----|--3--1--1--------1--1--3--|--1--------3----1----|
--0---------0---------|--2--------2--L-----------|--2--------4----2----|
--0--------------0----|--------2-----------------|--3------------------|
----------------------|-----3--------------------|--3------------------|
--2-------------------|--3-----------------------|---------------------|

                            ^                     ^
  E  E  E  E  E  Q    E     H        Q    Q       H        H
-----0-------------------|--0--------7----3----|--5--------L--------|
--3--------0--L-------0--|--3------------------|--------------------|
--------2--------0-------|--0------------------|--5-----------------|
-------------------------|--2------------------|--------------------|
-----2-------------------|---------------------|--------------------|
--2----------------------|--2------------------|--3-----------------|

  H        Q    Q       E  E  E  E  E  E  E  E     E  E  E  E  E  E  Q
---------------------|--------0-----------------|--0-----1--0-------------|
--0--------L---------|--------0--1--0--3--1--3--|--1-----3--1--3----------|
--0--------L---------|--2-----0--2--0--4--2--4--|--------0-----4----------|
----------------2----|--------2--------0--3-----|-----2-----------0--3----|
---------------------|--0--3--------------------|-------------------------|
---------------------|--------------5-----------|--------------5----------|

  E  E  E  E  E  E  E  E     E  E  E  E  E  E  S S E
--0-----------------------|---------------------------|
--------3--1--0-----------|--1-----0--------3--0------|
--------------------------|-----------2--0-------2-0--|
--------2-----------0-----|--------2--------0---------|
-----3-----------2-----0--|-----3--------------2------|
--3--------2--------------|------------------------5--|

  E  E  E  E  E  E  E  E     E  E  E  E  E  E  Q       E  E  E  E  E  E  E  E
--------0-----------------|--0-----1--3-------------|--0-----------------------|
--------0--1--0--3--1--3--|--1-----3--5--3----------|--------3--1--0-----------|
--2-----0--2--0--4--2--4--|--------0-----4----------|--------------------0-----|
--------2--------0--3-----|-----2-----------0--3----|--------2-----------0-----|
--0--3--------------------|-------------------------|-----3-----------2--------|
--------------5-----------|--------------5----------|--3--------2-----------0--|

                                ^           ^
  E  E  E  E  E  E   E   E      Q     E  E  Q    Q
------------------------10--|--12----10--8--7----3----|
--------------------10------|--10-----------0---------|
--0--2--2--2--L--7----------|--10-----------0---------|
-----2--4-------------------|-------------------------|
----------------------------|---0---------------------|
----------------------------|---------------5---------|

                                                          ^
  E  E  E  E  E  E  E  E     S S S S S S S S  H           W
--3--5--5-----------------|----------------0-14--------|--0----------------||
-----------------3--------|--------0-7-----------------|--3----------------||
-----------2--------2--0--|------2-------7-------------|--2----------------||
--------4-----------------|----1-----------------------|--3----------------||
-----3--------------------|--2---------7---------------|--2----------------||
--0-----------------------|----------------------------|-------------------||

Duration Legend
---------------
W - whole
H - half
Q - quarter
E - 8th
S - 16th
T - 32nd
X - 64th
. - note dotted
|-n-|  - n-tuplets

Tablature Legend
----------------
L - tied note
x - Tap guitar body
^ - brush up

16 comments on The Sight of Spira

wth?

wth?

Whatever happened to the tab

Whatever happened to the tab of sight of spira that i put up >.

Apparently it was a complete

Apparently it was a complete copy of this one that Kabukibear made...

oh ok i didnt notice his was

oh ok i didnt notice his was arranged by the same person

Huh? I arranged it, I didn't

Huh? I arranged it, I didn't just tab it. I'm not sure if you just found a midi of mine floating around and put it into GP without realizing it or what.

Yeah I don't really

Yeah I don't really understand either. This tab has been certified with the Kabukibear Original Arrangement stamp of approval.

Yeah, I mean mine is based

Yeah, I mean mine is based off of another arrangement, yes, but I decided how to make it work on the guitar and changed the key and everything else. The idea that you would happen to change it to the same key as me, and use my same fingerings by coincidence is hard to swallow. So unless you happened to have found the midi OF my arrangement thinking it was someone elses arrangement and you tabbed it, then I can see it happening by accident. But if you based yours off of the arrangement I based mine off of and did it EXACTLY the same as mine? Not likely.

game tabbing. It's a small

game tabbing. It's a small world.

Is there a music sheet

Is there a music sheet version of this one for guitar? I can only find the piano version...

Click the download tab link

Click the download tab link in the top right. I included the sheet music that goes along with this tab. As far as OFFICIAL sheets I don't think they came out with any.

WHOA i remembered this being

5

WHOA i remembered this being a guitar duet. haha Solo guitar FTW!!! great tab!

Another masterpiece from

5

Another masterpiece from Justin XD. This one is amazing, Stamen's version is awesome too, but is way to tough to play, while this one has an easier fingering that alone make a huge gap between the two of them. Still, both are beautiful and, instead of picking one, I'll learn both XD.

I'm having trouble with the X part in a lot of tabs, what I'm supose to do with those notes, how should I play them? And those with a lot of them, like:

X
X
X

Please, someone help.

Those are called dead notes.

Those are called dead notes. You leave your finger on them without actually pushing down. It makes like a dull "thwick" sound.

Oh! Now I get it thanks ^^

Oh! Now I get it thanks ^^

Re: The Sight of Spira

I really enjoy adding glissandi here and there. That makes it more vivid and difficult. (Yes, I got too much free time and I'm making TABs harder than they are just to waste some time practicing :D )

tab

5

i just miss out the dead notes and the ties notes, no need for them they just make thing ALOT more complicated