Login or Register to remove this ad. | Advertise Here

Silence Before the Storm (Final Fantasy X) Bass Tab

Submitted: Oct 02, 2007 by archard (Last updated: May 07, 2008)

0
Download | Listen
Game: Final Fantasy X
Composer(s): Nobuo Uematsu, Junya Nakano, Masashi Hamauzu
Style: Transcription
Series: Final Fantasy

AutoScroll: Slow | Medium | Fast
Transcribed by Aaron Morison (somerandom01@hotmail.com)

Gtr I (E A D G)

  Q=85
 3/4
  Gtr I
  W        W        W        W        W        W
|--------|--------|--------|--------|--------|------|
|--------|--------|--------|--------|--------|------|
|--------|--------|--------|--------|--------|------|
|--------|--------|--------|--------|--------|------|

  W        W        W        W        W        W
|--------|--------|--------|--------|--------|------|
|--------|--------|--------|--------|--------|------|
|--------|--------|--------|--------|--------|------|
|--------|--------|--------|--------|--------|------|

  W        W        W        W        W        W
|--------|--------|--------|--------|--------|------|
|--------|--------|--------|--------|--------|------|
|--------|--------|--------|--------|--------|------|
|--------|--------|--------|--------|--------|------|

  W        W        W        W        W        W
|--------|--------|--------|--------|--------|------|
|--------|--------|--------|--------|--------|------|
|--------|--------|--------|--------|--------|------|
|--------|--------|--------|--------|--------|------|

  W        W          W        H    +E  E    H     +E   E   H.
|--------|----------|--------|-3----(3)-3-|-10----(10)-10-|-8-----|
|--------|----------|--------|------------|---------------|-------|
|--------|----------|--------|------------|---------------|-------|
|--------|----------|--------|------------|---------------|-------|

  H    +E  S S   H    +E  E    H     +E   S  S    Q   H      Q   H
|--------------|------------|-10----(10)-10-11-|-12--------|----------|
|-8----(8)-6-7-|-8----(8)-8-|------------------|-----10----|----------|
|--------------|------------|------------------|-----------|----10----|
|--------------|------------|------------------|-----------|----------|

  H    +E  E    H     +E   E   H.        H    +E  S S   H    +E  E   H    Q
|------------|-10----(10)-10-|-8-------|--------------|------------|------1----|
|-8----(8)-8-|---------------|---------|-8----(8)-6-5-|-4----(4)-4-|-3---------|
|------------|---------------|---------|--------------|------------|-----------|
|------------|---------------|---------|--------------|------------|-----------|

  H.        H.        W          W          H    +E  E   H    Q
|-3-------|---------|----------|----------|-3----(3)-5-|-7---------|
|---------|---------|----------|----------|------------|------8----|
|---------|-1-------|----------|----------|------------|-----------|
|---------|---------|----------|----------|------------|-----------|

  H    +E   E    H     Q    H    +E   E
|-------------|-----------|-------------|
|-------------|-------10--|-8----(8)-10-|
|-8----(8)-10-|-11--------|-------------|
|-------------|-----------|-------------|

   H     Q     H     +E  E   E  E  E E  E  E
|-----------|--------------|---12-10---------|
|-12--------|--------------|-----------12-13-|
|-------13--|--------------|-----------------|
|-----------|-13----(13)---|-----------------|

   Q   Q.    E    H     Q    H    +E  E   H    Q    H    +E  E   H    Q
|--------------|-----------|------------|------5--|-6----(6)---|---------|
|-15-----------|-----------|-3----(3)-5-|-6-------|----------6-|-6----5--|
|-----13----15-|-17--------|------------|---------|------------|---------|
|--------------|-------18--|------------|---------|------------|---------|

  H    +E  E   Q  Q  Q    H     Q     H    Q    H     Q     H.
|----------6-|-6--------|----------|----------|----------|--------|
|-4----(4)---|----8-----|------10--|-10-------|------10--|-10-----|
|------------|-------9--|-8--------|----------|-8--------|--------|
|------------|----------|----------|-------8--|----------|--------|

  H    +E  E    H     +E   E   H.        H    +E  S S   H    +E  E
|------------|-10----(10)-10-|-8-------|--------------|------------|
|-8----(8)-8-|---------------|---------|-8----(8)-6-7-|-8----(8)-8-|
|------------|---------------|---------|--------------|------------|
|------------|---------------|---------|--------------|------------|

   H     +E   S  S    Q   H      Q   H      H    +E  E    H     +E   E   H.
|-10----(10)-10-11-|-12--------|----------|------------|-10----(10)-10-|-8-----|
|------------------|-----10----|----------|-8----(8)-8-|---------------|-------|
|------------------|-----------|----10----|------------|---------------|-------|
|------------------|-----------|----------|------------|---------------|-------|

  H    +E  S S   H    +E  E   H    Q    H.        H.
|--------------|------------|------1--|-3-------|-------*|
|-8----(8)-6-5-|-4----(4)-4-|-3-------|---------|-------*|
|--------------|------------|---------|---------|-1-----*|
|--------------|------------|---------|---------|-------*|