Login or Register to remove this ad. | Advertise Here

Silence Before the Storm (Final Fantasy X) Guitar Tab

Submitted: Oct 02, 2007 by archard (Last updated: Sep 18, 2009)

3
Average: 3 (4 votes)
Download | Listen
Game: Final Fantasy X
Composer(s): Nobuo Uematsu, Junya Nakano, Masashi Hamauzu
Style: 2 or more instruments, Transcription
Series: Final Fantasy

AutoScroll: Slow | Medium | Fast
Transcribed by Aaron Morison (somerandom01@hotmail.com)

Gtr I (E A D G B E)
Gtr II (Eb Ab Db Gb Bb Eb)

  Q=85
 3/4
  Gtr I
  W        W          W          E  E E  E E  E
|--------|----------|----------|-6---------6----|
|--------|----------|----------|----6----6----6-|
|--------|----------|----------|------6---------|
|--------|----------|----------|----------------|
|--------|----------|----------|----------------|
|--------|----------|----------|----------------|
|
| Gtr II
| W        W          W          E  E E  E E  E
|--------|----------|----------|------7-14-7----|
|--------|----------|----------|---10-0----0-10-|
|--------|----------|----------|--------11------|
|--------|----------|----------|-9--7---------7-|
|--------|----------|----------|----------------|
|--------|----------|----------|-7--------------|

   E E  E  E E  E   E E E  E E E
|--6---------6----|-6--------6----|
|----6-----6----6-|---6-4--6---6--|
|-------6---------|---------------|
|-----------------|---------------|
|-----------------|---------------|
|-----------------|---------------|
|
|  E E  E  E E  E   E E E  E E E
|-12-7----14-7----|-----7-12-7----|
|----0-10----0-10-|---9-0----0-9--|
|--9------11------|--------9------|
|-------7-------7-|---6--------6--|
|-----------------|-7-------------|
|-----------------|-0-------------|

   E E E  E E E   E  E E  E E  E    E E  E  E E  E
|--6--------6---|-6---------6----|--6---------6----|
|----6-4--6---6-|----6----6----6-|----6-----6----6-|
|---------------|------6---------|-------6---------|
|---------------|----------------|-----------------|
|---------------|----------------|-----------------|
|---------------|----------------|-----------------|
|
|  E E E  E E E   E  E E  E E  E    E E  E  E E  E
|-14-7---12-7---|------7-14-7----|-12-7----14-7----|
|----0-9----0-9-|---10-0----0-10-|----0-10----0-10-|
|-11------9-----|--------11------|--9------11------|
|------6------6-|-9--7---------7-|-------7-------7-|
|---------------|----------------|-----------------|
|---------------|-7--------------|-----------------|

  E E E  E E E    E E E  E E E   E  E E  E E  E
|-6--------6---|--6--------6---|-6---------6----|
|---6-4--6---6-|----6-4--6---6-|----6----6----6-|
|--------------|---------------|------6---------|
|--------------|---------------|----------------|
|--------------|---------------|----------------|
|--------------|---------------|----------------|
|
| E E E  E E E    E E E  E E E   E  E E  E E  E
|-----7-12-7---|-14-7---12-7---|------7-14-7----|
|---9-0----0-9-|----0-9----0-9-|---10-0----0-10-|
|--------9-----|-11------9-----|--------11------|
|---6--------6-|------6------6-|-9--7---------7-|
|-7------------|---------------|----------------|
|-0------------|---------------|-7--------------|

   E E  E  E E  E   E E E  E E E    E E E  E E E
|--6---------6----|-6--------6---|--6--------6---|
|----6-----6----6-|---6-4--6---6-|----6-4--6---6-|
|-------6---------|--------------|---------------|
|-----------------|--------------|---------------|
|-----------------|--------------|---------------|
|-----------------|--------------|---------------|
|
|  E E  E  E E  E   E E E  E E E    E E E  E E E
|-12-7----14-7----|-----7-12-7---|-14-7---12-7---|
|----0-10----0-10-|---9-0----0-9-|----0-9----0-9-|
|--9------11------|--------9-----|-11------9-----|
|-------7-------7-|---6--------6-|------6------6-|
|-----------------|-7------------|---------------|
|-----------------|-0------------|---------------|

  E  E E  E E  E    E E  E  E E  E   E E E  E E E
|-6---------6----|--6---------6----|-6--------6---|
|----6----6----6-|----6-----6----6-|---6-4--6---6-|
|------6---------|-------6---------|--------------|
|----------------|-----------------|--------------|
|----------------|-----------------|--------------|
|----------------|-----------------|--------------|
|
| E  E E  E E  E    E E  E  E E  E   E E E  E E E
|------7-14-7----|-12-7----14-7----|-----7-12-7---|
|---10-0----0-10-|----0-10----0-10-|---9-0----0-9-|
|--------11------|--9------11------|--------9-----|
|-9--7---------7-|-------7-------7-|---6--------6-|
|----------------|-----------------|-7------------|
|-7--------------|-----------------|-0------------|

   E E E  E E E   E E  E  E  E E    E  E  E  E  E E
|--6--------6---|----------------|------------------|
|----6-4--6---6-|-8----------8---|--8-----------8---|
|---------------|---8-----8----8-|-----8-----8----8-|
|---------------|-----10---------|-------10---------|
|---------------|----------------|------------------|
|---------------|----------------|------------------|
|
|  E E E  E E E   E E  E  E  E E    E  E  E  E  E E
|-14-7---12-7---|-----11-12-11---|-12-11----12-11---|
|----0-9----0-9-|---9----------9-|--------9-------9-|
|-11------9-----|------8--9--8---|--9--8-----9--8---|
|------6------6-|---6----------6-|--------6-------6-|
|---------------|-4--------------|------------------|
|---------------|----------------|------------------|

  E  E  E  E E  E    E  E  E  E E  E    E E  E  E  E  E
|-----------------|------------------|------------------|
|-9----------9----|--9----------9----|-10---------10----|
|---10----10---10-|----10----10---10-|----9-----9-----9-|
|------11---------|-------11---------|------10----------|
|-----------------|------------------|------------------|
|-----------------|------------------|------------------|
|
| E  E  E  E E  E    E  E  E  E E  E    E E  E  E  E  E
|-------7-14-7----|-14--7----14-7----|-------8-13-------|
|---10--0----0-10-|-----0-10----0-10-|----9-------13----|
|---------11------|-11-------11------|-------5-10----13-|
|----7----------7-|--------7-------7-|--8-6-------10----|
|-5---------------|------------------|---------------11-|
|-----------------|------------------|--6---------------|

   E  E  E  E  E  E   E E E  E E  E    E E  E  E E  E
|-------------------|---------------|-----------------|
|-10----------10----|-8--------8----|--8---------8----|
|-----9-----9-----9-|---7----7----7-|----7-----7----7-|
|-------10----------|-----8---------|-------8---------|
|-------------------|---------------|-----------------|
|-------------------|---------------|-----------------|
|
|  E  E  E  E  E  E   E E E  E E  E    E E  E  E E  E
|-13-------13-------|-----7-11-7----|-12-7----11-7----|
|----13-------13----|---7------0----|----0-------0----|
|-10----13-10----13-|-----4--8---11-|--9---11--8---11-|
|----10-------10----|-6-4-----------|-----------------|
|-------11-------11-|-------------9-|-------9-------9-|
|-------------------|-4-------------|-----------------|

  E  E E  E E  E    E E  E  E E  E   E E E  E E E
|-6---------6----|--6---------6----|-6--------6---|
|----6----6----6-|----6-----6----6-|---6-4--6---6-|
|------6---------|-------6---------|--------------|
|----------------|-----------------|--------------|
|----------------|-----------------|--------------|
|----------------|-----------------|--------------|
|
| E  E E  E E  E    E E  E  E E  E   E E E  E E E
|------7-14-7----|-12-7----14-7----|-----7-12-7---|
|---10-0----0-10-|----0-10----0-10-|---9-0----0-9-|
|--------11------|--9------11------|--------9-----|
|-9--7---------7-|-------7-------7-|---6--------6-|
|----------------|-----------------|-7------------|
|-7--------------|-----------------|-0------------|

   E E E  E E E   E  E E  E E  E    E E  E  E E  E
|--6--------6---|-6---------6----|--6---------6----|
|----6-4--6---6-|----6----6----6-|----6-----6----6-|
|---------------|------6---------|-------6---------|
|---------------|----------------|-----------------|
|---------------|----------------|-----------------|
|---------------|----------------|-----------------|
|
|  E E E  E E E   E  E E  E E  E    E E  E  E E  E
|-14-7---12-7---|------7-14-7----|-12-7----14-7----|
|----0-9----0-9-|---10-0----0-10-|----0-10----0-10-|
|-11------9-----|--------11------|--9------11------|
|------6------6-|-9--7---------7-|-------7-------7-|
|---------------|----------------|-----------------|
|---------------|-7--------------|-----------------|

  E E E  E E E    E E E  E E E   E  E E  E E  E
|-6--------6---|--6--------6---|-6---------6----|
|---6-4--6---6-|----6-4--6---6-|----6----6----6-|
|--------------|---------------|------6---------|
|--------------|---------------|----------------|
|--------------|---------------|----------------|
|--------------|---------------|----------------|
|
| E E E  E E E    E E E  E E E   E  E E  E E  E
|-----7-12-7---|-14-7---12-7---|------7-14-7----|
|---9-0----0-9-|----0-9----0-9-|---10-0----0-10-|
|--------9-----|-11------9-----|--------11------|
|---6--------6-|------6------6-|-9--7---------7-|
|-7------------|---------------|----------------|
|-0------------|---------------|-7--------------|

   E E  E  E E  E   E E E  E E E    E E E  E E E
|--6---------6----|-6--------6---|--6--------6---|
|----6-----6----6-|---6-4--6---6-|----6-4--6---6-|
|-------6---------|--------------|---------------|
|-----------------|--------------|---------------|
|-----------------|--------------|---------------|
|-----------------|--------------|---------------|
|
|  E E  E  E E  E   E E E  E E E    E E E  E E E
|-12-7----14-7----|-----7-12-7---|-14-7---12-7---|
|----0-10----0-10-|---9-0----0-9-|----0-9----0-9-|
|--9------11------|--------9-----|-11------9-----|
|-------7-------7-|---6--------6-|------6------6-|
|-----------------|-7------------|---------------|
|-----------------|-0------------|---------------|

  E E E E E E   E  E  E  E  E  E    E  E  E  E  E  E
|-6-------6---|------------------|-------------------|
|---7---7---7-|-9-----------9----|-11----------11----|
|-----6-------|---10----10----10-|----10----10----10-|
|-------------|------10----------|-------12----------|
|-------------|------------------|-------------------|
|-------------|------------------|-------------------|
|
| E E E E E E   E  E  E  E  E  E    E  E  E  E  E  E
|-----5-7-5---|-------5--9-------|--------7-12--7----|
|---3-------3-|----5-------10----|--------0-----0----|
|-----2-4-2---|-------2--6-----9-|----11-----9----11-|
|-5-0-------0-|-4--2--------7----|--9----------------|
|-------------|----------------7-|-----9-----------9-|
|-3-----------|-2----------------|--7----------------|

   E  E  E  E  E  E    E  E  E  E  E  E    E  E  E  E  E  E
|-------------------|-------------------|-------------------|
|-11----------11----|-11----------11----|-11----------11----|
|----10----10----10-|----10----10----10-|----10----10----10-|
|-------12----------|-------12----------|-------12----------|
|-------------------|-------------------|-------------------|
|-------------------|-------------------|-------------------|
|
|  E  E  E  E  E  E    E  E  E  E  E  E    E  E  E  E  E  E
|-----7----11--7----|--------7-12--7----|-----7----11--7----|
|-14--0--------0----|--------0-----0----|-14--0--------0----|
|-------11--8----11-|----11-----9----11-|-------11--8----11-|
|-11----------------|--9----------------|-11----------------|
|--------9--------9-|-----9-----------9-|--------9--------9-|
|-------------------|--7----------------|-------------------|

   E  E  E  E  E  E    E  E  E  E  E  E   E  E  E  E  E  E
|-------------------|-------------------|------------------|
|-11----------11----|-11----------11----|-9-----------9----|
|----10----10----10-|----10----10----10-|---10----10----10-|
|-------12----------|-------12----------|------10----------|
|-------------------|-------------------|------------------|
|-------------------|-------------------|------------------|
|
|  E  E  E  E  E  E    E  E  E  E  E  E   E  E  E  E  E  E
|--------7-12-11--7-|-12-11--7-12-11----|-------5-14-------|
|--------0--------0-|--------0----------|----5-------14----|
|----11-----9--8----|--9--8-----9--8----|-------2-11----14-|
|-------------------|-----------------9-|-4--2-------11----|
|-----9-------------|-------------------|---------------12-|
|--7----------------|-------------------|-2----------------|

   E  E  E  E  E  E    E  E  E  E  E  E    E  E  E  E  E  E
|-------------------|-------------------|-------------------|
|--9-----------9----|-11----------11----|-11----------11----|
|----10----10----10-|----10----10----10-|----10----10----10-|
|-------10----------|-------12----------|-------12----------|
|-------------------|-------------------|-------------------|
|-------------------|-------------------|-------------------|
|
|  E  E  E  E  E  E    E  E  E  E  E  E    E  E  E  E  E  E
|-14-------14-------|--------7----------|-------------------|
|----14-------14----|-----7-------------|-------------------|
|-11----14-11----14-|--------4-21-20----|-21-20----21-20----|
|----11-------11----|-----4----------21-|-------21----------|
|-------12-------12-|--2----------------|-19-------19-------|
|-------------------|----------24-23-19-|----23-19----23-19-|

  E  E  E  E  E  E    E  E  E  E  E  E    E  E  E  E  E  E
|------------------|-------------------|-------------------|
|-9-----------9----|--9-----------9----|-11----------11----|
|---10----10----10-|----10----10----10-|----10----10----10-|
|------10----------|-------10----------|-------12----------|
|------------------|-------------------|-------------------|
|------------------|-------------------|-------------------|
|
| E  E  E  E  E  E    E  E  E  E  E  E    E  E  E  E  E  E
|-------5-14-------|-14-------14-------|--------7----------|
|----5-------14----|----14-------14----|-----7-------------|
|-------2-11----14-|-11----14-11----14-|--------4-21-20----|
|-4--2-------11----|----11-------11----|-----4----------21-|
|---------------12-|-------12-------12-|--2----------------|
|-2----------------|-------------------|----------24-23-19-|

   E  E  E  E  E  E   E  E  E  E  E  E    E  E  E  E  E  E
|-------------------|------------------|-------------------|
|-11----------11----|-9-----------9----|--9-----------9----|
|----10----10----10-|---10----10----10-|----10----10----10-|
|-------12----------|------10----------|-------10----------|
|-------------------|------------------|-------------------|
|-------------------|------------------|-------------------|
|
|  E  E  E  E  E  E   E  E  E  E  E  E    E  E  E  E  E  E
|-------------------|-------5-14-------|-14-------14-------|
|-------------------|----5-------14----|----14-------14----|
|-21-20----21-20----|-------2-11----14-|-11----14-11----14-|
|-------21----------|-4--2-------11----|----11-------11----|
|-19-------19-------|---------------12-|-------12-------12-|
|----23-19----23-19-|-2----------------|-------------------|

   E  E  E  E  E  E    E  E  E  E  E  E    E  E  E  E  E  E
|-------------------|-------------------|-------------------|
|--9-----------9----|--9-----------9----|-11----------11----|
|----10----10----10-|----10----10----10-|----11----11----11-|
|-------11----------|-------11----------|-------11----------|
|-------------------|-------------------|-------------------|
|-------------------|-------------------|-------------------|
|
|  E  E  E  E  E  E    E  E  E  E  E  E    E  E  E  E  E  E
|-------------------|-------------------|--------7-14--7----|
|----------14-------|-14-------14-------|-----8--0-----0--8-|
|----11-14----14-11-|----14-11----14-11-|-----0----11-----0-|
|----------11-------|-11-------11-------|-------------------|
|-------12----12----|----12-------12----|-------------------|
|-10-14----------14-|-------14-------14-|-10----------------|

   E  E  E  E  E  E    E  E  E  E  E  E    E  E  E  E  E  E
|-------------------|-------------------|-------------------|
|-11----------11----|-10----------10----|-10----------10----|
|----11----11----11-|----10----10----10-|----10----10----10-|
|-------11----------|-------10----------|-------10----------|
|-------------------|-------------------|-------------------|
|-------------------|-------------------|-------------------|
|
|  E  E  E  E  E  E    E  E  E  E  E  E    E  E  E  E  E  E
|-14--7----14--7----|-----6--9-16-------|-16-------16-------|
|-----0--8-----0--8-|-------------14----|----14-------14----|
|-11-----0-11-----0-|-----3--6-13----15-|-13----15-13----15-|
|-------------------|--4----------11----|----11-------11----|
|-------------------|----------------13-|-------13-------13-|
|-------------------|--2----------------|-------------------|

   E  E  E  E  E  E    E  E  E  E  E  E    E  E  E  E  E  E
|-------------------|-------------------|-------------------|
|-10----------10----|-10----------10----|-11----------11----|
|----10----10----10-|----10----10----10-|----10----10----10-|
|-------10----------|-------10----------|-------11----------|
|-------------------|-------------------|-------------------|
|-------------------|-------------------|-------------------|
|
|  E  E  E  E  E  E    E  E  E  E  E  E    E  E  E  E  E  E
|-----6--9-16-------|-16-------16-------|--------7-14--7----|
|-------------14----|----14-------14----|----10--0-----0-10-|
|-----3--6-13----15-|-13----15-13----15-|----------11-------|
|--4----------11----|----11-------11----|--9--7-----------7-|
|----------------13-|-------13-------13-|-------------------|
|--2----------------|-------------------|--7----------------|

   E  E  E  E  E  E    E  E E  E E E    E E E  E E E
|-------------------|------------6---|--6--------6---|
|-11----------11----|-11-------6---6-|----6-4--6---6-|
|----10----10----10-|----10-8--------|---------------|
|-------11----------|----------------|---------------|
|-------------------|----------------|---------------|
|-------------------|----------------|---------------|
|
|  E  E  E  E  E  E    E  E E  E E E    E E E  E E E
|-12--7----14--7----|-------7-12-7---|-14-7---12-7---|
|-----0-10-----0-10-|-----9-0----0-9-|----0-9----0-9-|
|--9-------11-------|----------9-----|-11------9-----|
|--------7--------7-|-----6--------6-|------6------6-|
|-------------------|--7-------------|---------------|
|-------------------|--0-------------|---------------|

  E  E E  E E  E    E E  E  E E  E   E E E  E E E
|-6---------6----|--6---------6----|-6--------6---|
|----6----6----6-|----6-----6----6-|---6-4--6---6-|
|------6---------|-------6---------|--------------|
|----------------|-----------------|--------------|
|----------------|-----------------|--------------|
|----------------|-----------------|--------------|
|
| E  E E  E E  E    E E  E  E E  E   E E E  E E E
|------7-14-7----|-12-7----14-7----|-----7-12-7---|
|---10-0----0-10-|----0-10----0-10-|---9-0----0-9-|
|--------11------|--9------11------|--------9-----|
|-9--7---------7-|-------7-------7-|---6--------6-|
|----------------|-----------------|-7------------|
|-7--------------|-----------------|-0------------|

   E E E  E E E   E  E E  E E  E    E E  E  E E  E
|--6--------6---|-6---------6----|--6---------6----|
|----6-4--6---6-|----6----6----6-|----6-----6----6-|
|---------------|------6---------|-------6---------|
|---------------|----------------|-----------------|
|---------------|----------------|-----------------|
|---------------|----------------|-----------------|
|
|  E E E  E E E   E  E E  E E  E    E E  E  E E  E
|-14-7---12-7---|------7-14-7----|-12-7----14-7----|
|----0-9----0-9-|---10-0----0-10-|----0-10----0-10-|
|-11------9-----|--------11------|--9------11------|
|------6------6-|-9--7---------7-|-------7-------7-|
|---------------|----------------|-----------------|
|---------------|-7--------------|-----------------|

  E E E  E E E    E E E  E E E   E E E E E E
|-6--------6---|--6--------6---|-6-------6---|
|---6-4--6---6-|----6-4--6---6-|---7---7---7-|
|--------------|---------------|-----6-------|
|--------------|---------------|-------------|
|--------------|---------------|-------------|
|--------------|---------------|-------------|
|
| E E E  E E E    E E E  E E E   E E E E E E
|-----7-12-7---|-14-7---12-7---|-----5-7-5---|
|---9-0----0-9-|----0-9----0-9-|---3-------3-|
|--------9-----|-11------9-----|-----2-4-2---|
|---6--------6-|------6------6-|-5-0-------0-|
|-7------------|---------------|-------------|
|-0------------|---------------|-3-----------|

  E  E  E  E  E  E    E  E  E  E  E  E    E  E  E  E  E  E
|------------------|-------------------|-------------------|
|-9-----------9----|-11----------11----|-11----------11----|
|---10----10----10-|----10----10----10-|----10----10----10-|
|------10----------|-------12----------|-------12----------|
|------------------|-------------------|-------------------|
|------------------|-------------------|-------------------|
|
| E  E  E  E  E  E    E  E  E  E  E  E    E  E  E  E  E  E
|-------5--9-------|--------7-12--7----|-----7----11--7----|
|----5-------10----|--------0-----0----|-14--0--------0----|
|-------2--6-----9-|----11-----9----11-|-------11--8----11-|
|-4--2--------7----|--9----------------|-11----------------|
|----------------7-|-----9-----------9-|--------9--------9-|
|-2----------------|--7----------------|-------------------|

   E  E  E  E  E  E    E  E  E  E  E  E    E  E  E  E  E  E
|-------------------|-------------------|-------------------|
|-11----------11----|-11----------11----|-11----------11----|
|----10----10----10-|----10----10----10-|----10----10----10-|
|-------12----------|-------12----------|-------11----------|
|-------------------|-------------------|-------------------|
|-------------------|-------------------|-------------------|
|
|  E  E  E  E  E  E    E  E  E  E  E  E    E  E  E  E  E  E
|--------7-12--7----|-----7----11--7----|--------7-14--7----|
|--------0-----0----|-14--0--------0----|----10--0-----0-10-|
|----11-----9----11-|-------11--8----11-|----------11-------|
|--9----------------|-11----------------|--9--7-----------7-|
|-----9-----------9-|--------9--------9-|-------------------|
|--7----------------|-------------------|--7----------------|

   E  E  E  E  E  E    E  E E  E E E    E E E  E E E
|-------------------|------------6---|--6--------6---|
|-11----------11----|-11-------6---6-|----6-4--6---6-|
|----10----10----10-|----10-8--------|---------------|
|-------11----------|----------------|---------------|
|-------------------|----------------|---------------|
|-------------------|----------------|---------------|
|
|  E  E  E  E  E  E    E  E E  E E E    E E E  E E E
|-12--7----14--7----|-------7-12-7---|-14-7---12-7---|
|-----0-10-----0-10-|-----9-0----0-9-|----0-9----0-9-|
|--9-------11-------|----------9-----|-11------9-----|
|--------7--------7-|-----6--------6-|------6------6-|
|-------------------|--7-------------|---------------|
|-------------------|--0-------------|---------------|

  E  E E  E E  E    E E  E  E E  E   E E E  E E E
|-6---------6----|--6---------6----|-6--------6---|
|----6----6----6-|----6-----6----6-|---6-4--6---6-|
|------6---------|-------6---------|--------------|
|----------------|-----------------|--------------|
|----------------|-----------------|--------------|
|----------------|-----------------|--------------|
|
| E  E E  E E  E    E E  E  E E  E   E E E  E E E
|------7-14-7----|-12-7----14-7----|-----7-12-7---|
|---10-0----0-10-|----0-10----0-10-|---9-0----0-9-|
|--------11------|--9------11------|--------9-----|
|-9--7---------7-|-------7-------7-|---6--------6-|
|----------------|-----------------|-7------------|
|-7--------------|-----------------|-0------------|

   E E E  E E E   E  E E  E E  E    E E  E  E E  E
|--6--------6---|-6---------6----|--6---------6----|
|----6-4--6---6-|----6----6----6-|----6-----6----6-|
|---------------|------6---------|-------6---------|
|---------------|----------------|-----------------|
|---------------|----------------|-----------------|
|---------------|----------------|-----------------|
|
|  E E E  E E E   E  E E  E E  E    E E  E  E E  E
|-14-7---12-7---|------7-14-7----|-12-7----14-7----|
|----0-9----0-9-|---10-0----0-10-|----0-10----0-10-|
|-11------9-----|--------11------|--9------11------|
|------6------6-|-9--7---------7-|-------7-------7-|
|---------------|----------------|-----------------|
|---------------|-7--------------|-----------------|

  E E E  E E E    E E E  E E E   E  E E  E E  E
|-6--------6---|--6--------6---|-6---------6----|
|---6-4--6---6-|----6-4--6---6-|----6----6----6-|
|--------------|---------------|------6---------|
|--------------|---------------|----------------|
|--------------|---------------|----------------|
|--------------|---------------|----------------|
|
| E E E  E E E    E E E  E E E   E  E E  E E  E
|-----7-12-7---|-14-7---12-7---|------7-14-7----|
|---9-0----0-9-|----0-9----0-9-|---10-0----0-10-|
|--------9-----|-11------9-----|--------11------|
|---6--------6-|------6------6-|-9--7---------7-|
|-7------------|---------------|----------------|
|-0------------|---------------|-7--------------|

   E E  E  E E  E    +E  E Q  Q
|--6---------6----|--------------*|
|----6-----6----6-|--(6)---------*|
|-------6---------|--------------*|
|-----------------|--------------*|
|-----------------|--------------*|
|-----------------|--------------*|
|
|  E E  E  E E  E    +E  E Q  Q
|-12-7----14-7----|--------------*|
|----0-10----0-10-|-(10)---------*|
|--9------11------|--------------*|
|-------7-------7-|--(7)---------*|
|-----------------|--------------*|
|-----------------|--------------*|

5 comments on Silence Before the Storm

jesus fuckin' christ that is

jesus fuckin' christ that is hard to play

lol,i challenge someone to

4

lol,i challenge someone to play this ^_^'

ill get a recording up next

5

ill get a recording up next week =P

This tab is even over my

This tab is even over my head and that's hard to do. I gather its correct, but I don't think this song has to be as complicated as you made it...

lol

1

he take a done midi file
put it on guitar pro and post here as arranger ¬¬
he doesn't deserve any star he got whole life