Login or Register to remove this ad. | Advertise Here

Rikku's Theme (Final Fantasy X) Guitar Tab

Submitted: Oct 02, 2007 by archard

4.6
Average: 4.6 (5 votes)
Download | Listen
Game: Final Fantasy X
Composer(s): Nobuo Uematsu, Junya Nakano, Masashi Hamauzu
Style: Transcription
Series: Final Fantasy

AutoScroll: Slow | Medium | Fast
Riku's Theme
Final Fantasy X
Composed by Nobuo Uematsu
Tabbed by Richard Schaefer (richard@gametabs.net)
7/26/06

e--------0-------------------------------------------
B------1----3-----3-1-1----------------1-------------
G--2-3----------3------------------0-2----3---0-3-2-2
D--------------------------------3-------------------
A----------------------------------------------------
E----------------------------------------------------

e----------------------------------------------
B-------------------------------------------1-1
G--------0---0---2-2------------0-2-3-2-3------
D--0-2-3---3------------------3----------------
A----------------------------------------------
E----------------------------------------------

e-------------------------------------
B-------------------------------------
G--3-2-----------0-2------------------
D------3-----0-3-----3-3-0-3-2-3-2-0-0
A-------------------------------------
E-------------------------------------

e--5-6-8-12-10--6-10-8-8----------1-3-5-8-6--3-6-5-5
B---------------------------------------------------
G---------------------------------------------------
D---------------------------------------------------
A---------------------------------------------------
E---------------------------------------------------

e----0-1-3-1-3--5-5----------1-3-5-6-5-6--8-8
B--3-----------------------------------------
G--------------------------------------------
D--------------------------------------------
A--------------------------------------------
E--------------------------------------------

e--6-5---------1-3-5-1-1---1-0-1-0----
B------6-----3-----------3---------3-3
G-------------------------------------
D-------------------------------------
A-------------------------------------
E-------------------------------------

e--5-3-5---6--5-3---3-5----------5-6-8-12--10-6-1-0---0-1
B--------6--------6---------------------------------3----
G--------------------------------------------------------
D--------------------------------------------------------
A--------------------------------------------------------
E--------------------------------------------------------

e--5-3-5---6--5-3---3-5----------5-6-8-12--10-8-5--
B--------6--------6-------------------------------6
G--------------------------------------------------
D--------------------------------------------------
A--------------------------------------------------
E--------------------------------------------------

e--1---1-5-----6-5-----3-1
B----3--------------------
G-------------------------
D-------------------------
A-------------------------
E-------------------------

2 comments on Rikku's Theme

the first to lines were

the first to lines were superb, but after that, it's basically all on the top e string, so i'd suggest you move some of those frets down to the B or G strings. just a tip. its playable though

Very nice, stays awful true

Very nice, stays awful true to the original piece, and simple.