Login or Register to remove this ad. | Advertise Here

People of the North (Final Fantasy X) Guitar Tab

Submitted: Oct 02, 2007 by archard

5
Average: 5 (4 votes)
Download | Listen
Game: Final Fantasy X
Composer(s): Nobuo Uematsu, Junya Nakano, Masashi Hamauzu
Style: Transcription
Series: Final Fantasy

AutoScroll: Slow | Medium | Fast
People of the North

Final Fantasy X

Composed by Nobuo Uematsu

Tabbed by Richard Schaefer (richard@gametabs.net)

7/20/06

e-------------------------
B-------------------------
G-------------------------
D----------2-----0--------
A--2---0-----------2---3-0
E-------------------------

e-------------------------
B-------------------------
G------------------------0
D----------2-----0--------
A--2---0-----------2---3--
E-------------------------

Higher version

e----------0--------------
B--0-------------3-0---1--
G------2-----------------2
D-------------------------
A-------------------------
E-------------------------

e----------0-------------3
B--0-------------3-0---1--
G------2------------------
D-------------------------
A-------------------------
E-------------------------

1 comment on People of the North

nicee tabs

nicee tabs