Login or Register to remove this ad. | Advertise Here

Besaid Island (Final Fantasy X) Guitar Tab

Submitted: Oct 02, 2007 by archard (Last updated: Oct 02, 2007)

4.833335
Average: 4.8 (6 votes)
Download | Listen
Game: Final Fantasy X
Composer(s): Nobuo Uematsu, Junya Nakano, Masashi Hamauzu
Style: Transcription
Series: Final Fantasy

AutoScroll: Slow | Medium | Fast
Besaid Island

Final Fantasy X

Composed by Nobuo Uematsu

Tabbed by Richard Schaefer (richard@gametabs.net)

7/20/06

Intro

e-----------------
B------0----------
G--------2-------2
D-----------------
A--0---------0----
E----------------- x2

Main Theme

e------7-5------------------------------------7-5------------
B------------7-5------------------------------------7-5-----7
G------------------7--------------------------------------7--
D--7-----------------7--------------------7------------------
A------------------------------------------------------------
E------------------------------------------------------------ x2

Arpeggiate this chord

e------5-2----------0--------
B--3----------------------3--
G--4------------------------2
D--4-------------------------
A----------------------------
E---------------------------- x2

e------7-5------------------------------------7-5------------
B------------7-5------------------------------------7-5-----7
G------------------7--------------------------------------7--
D--7-----------------7--------------------7------------------
A------------------------------------------------------------
E------------------------------------------------------------

e------5-2----------0--------
B--3----------------------3--
G--4------------------------2
D--4-------------------------
A----------------------------
E---------------------------- x2

e------7-5------------------------------------7-5------------
B------------7-5------------------------------------7-5-----7
G------------------7--------------------------------------7--
D--7-----------------7--------------------7------------------
A------------------------------------------------------------
E------------------------------------------------------------ x2

Repeat

4 comments on Besaid Island

Thanks matey

Thanks matey

beautiful easy and nice

beautiful easy and nice

Really dude, I checked some

Really dude, I checked some tabs on your site and you really did a great job. I really have to say : thank you!

one thing i do to this tab is

12.75

one thing i do to this tab is add in a 5 in this part:

e------7-5-------------------------7-5-----------------------
B----5------5-7-5--5-------------5------5-7-5--5-----7-------
G--------------------7----------------------------7----------
D--7-------------------7------7------------------------------
A------------------------------------------------------------
E------------------------------------------------------------

i don't know if anyone knows what i mean but yeah, nice anyway man.