Login or Register to remove this ad. | Advertise Here

Melody of Love (Dragon Quest V) Guitar Tab

Submitted: Oct 02, 2007 by ronito (Last updated: Sep 18, 2009)

5
Average: 5 (1 vote)
Download | Listen
Game: Dragon Quest V
Composer(s): Koichi Sugiyama
Style: Arrangement, Fingerstyle
Series: Dragon Quest

AutoScroll: Slow | Medium | Fast
Grand Piano
     H        E  E  S T S S T    E  E  Q    E  E  S T S S T
E||-----------------------0---|-------------------------2---|
B||---------------------0-----|--2-------------0--2---3-----|
G||--------------0--2---------|--------2----2---------------|
D||---------------------------|--------0----0---------------|
A||---------------------------|-----0-----------------------|
E||---------------------------|-----------------------------|

  E  E  Q    E  E  S T S S T    E  E  Q    E  E  S T S S T
-------------------------2---|--1----------------1---2-6---|
--2-----0----0--0--2---3-----|----------------4------------|
--------1----1---------------|-----------------------------|
-----------------------------|--------3----3---------------|
-----2-----------------------|-----4-----------------------|
--4--------------------------|--2-----2----2---------------|

  E  E  Q    E  S. T S T S S T     S.T T  S T  Q     E   S.T S. T S. T
---------------------------6---|---8------------------------------5----|
--6--0---------------6---7-----|-----8---10------------------8---------|
--8-------------8--------------|---------------9--------10-------------|
-------------------------------|--10----------10----10-----------------|
--------6----6-----------------|-------8-------8-----8-----------------|
--------7----7-----------------|---------------------------------------|

  S. T T S T Q    E  S. T S. T S. T     S. T T S T Q    S. T T S T S. S S T
--8------5---0-------1----3----5----|--10---------------0-------------------|
-----8------------------------------|-----10---8---6-------3----------------|
--5---------------------------------|--------0-----3-----------3---0--2-3---|
------------------------------------|---0----------5---------------0--------|
-------8-----3----3-----------------|------------------------------1--------|
-------------1----1-----------------|-------------------0----3--------------|

  E  E  E  E  E  E  S T S S T    E  E  Q    E  E  S T S S T
--------------------------0---|-------------------------2---|
------------------------0-----|--2-------------0--2---3-----|
--2-----0--------0--2---------|--------2----2---------------|
-----0-----0------------------|--------0----0---------------|
--0-----------4---------------|-----0-----------------------|
--------------5---------------|-----------------------------|

  E  E  Q    E  E  S T S S T    E  E  Q    E  E  S T S S T
-------------------------2---|--1----------------1---2-6---|
--2-----0----0--0--2---3-----|----------------4------------|
--------1----1---------------|-----------------------------|
-----------------------------|--------3----3---------------|
-----2-----------------------|-----4-----------------------|
--4--------------------------|--2-----2----2---------------|

  E  E  Q    E  S. T S T S S T     S.T T  S T Q    E  S. T S. T S. T
---------------------------6---|---8-----------------------3----5----|
--6--0---------------6---7-----|-----8---10---5-------6--------------|
--8-------------8--------------|--------------5----5-----------------|
-------------------------------|--10----------3----3-----------------|
--------6----6-----------------|-------8-----------------------------|
--------7----7-----------------|-------------------------------------|

  S. T T S T Q    E  S. T S. T S. T     S. T T S T Q    S. T T S T S. S S T
--8------5---0-------1----3----5----|--10---------------0-------------------|
-----8------------------------------|-----10---8---6-------3----------------|
--5---------------------------------|--------0-----3-----------3---0--2-3---|
------------------------------------|---0----------5---------------0--------|
-------8-----3----3-----------------|------------------------------1--------|
-------------1----1-----------------|-------------------0----3--------------|

  E  E  E  E  Q    E.  T T    S. S S. Q    S. S S. S. S S T
---------------------------|-----------------------0--------|
---------------------------|------------------1-3-----3-1---|
--2-----0------------------|--3-----------------------------|
-----0-----0-------7---L---|----------3----2--2-2--2--------|
--0-----------4------------|---------------3--3-3--3--------|
--------------5------------|--3--3-3--3---------------------|

  S. S S. S. S S T S. S S. E  T S.    S. S S. S. S S T S. S S T S. S S T
--5----------0-----0---------------|-------------------------------0-1---|
---------------3----------------3--|--1----1-----1--------0-2---3--------|
--5--5-5--5------------------------|-----3---------3---2-----------------|
--3--3-3--3--------0--0-0--0--L----|-----0-0--0--------5--------3--------|
-------------------1--1-1--1--L----|-------------------4--------5--------|
-----------------------------------|--0--0-0--0--------5-----------------|

  S. S S. S. S S T S. S S. E  T S.    S. S S T S T S S T S. S S. S. S S.
--3----------0-----0---------------|-------0---3---0---------------------|
---------------3----------------1--|-----1-----------1-------------------|
-----------------------------------|--2------------------2--L---------0--|
----------3--------2--2-2--2--L----|--------------------------------3----|
-------------------3--3-3--3--L----|--0--------------------------1-------|
--3--3-3--3------------------------|--------------------------1-----1-3--|

  S. S S T S T S S T S. S S. S. S S.    S. S S T S T S S T S. S S T S. S S T
-------0---3---0---------------------|---------------0-1---3--1-0------0-1---|
-----1-----------1-------------------|-------1---3---------3--------3--------|
--2------------------2--L---------0--|--2--3---------------4-----------------|
--------------------------------3----|--2------------------6-----------------|
--0--------------------------1-------|--4------------------------------------|
--------------------------1-----1-3--|--5------------------------------------|

  S. S S. S T S S T S T S S T S T S S T    S. S S. S. S S. H
--1--L------------------------------1---|--0------------------------||
--2--L----------------------------2-----|---------------------------||
--0--L--------------------0---2---------|--0------------------------||
------------------------3---------------|------------------2--------||
----------------0---4-------------------|-----4-0----------4--------||
-------0--1---3-------------------------|----------3--0-L--5--------||

Duration Legend
---------------
W - whole
H - half
Q - quarter
E - 8th
S - 16th
T - 32nd
X - 64th
. - note dotted
|-n-|  - n-tuplets