Login or Register to remove this ad. | Advertise Here

Bridal March (Dragon Quest V) Guitar Tab

Submitted: Oct 02, 2007 by ronito (Last updated: Sep 18, 2009)

5
Average: 5 (3 votes)
Download | Listen
Game: Dragon Quest V
Composer(s): Koichi Sugiyama
Style: Arrangement, Fingerstyle
Series: Dragon Quest

AutoScroll: Slow | Medium | Fast
MusicXML Part
     E  E  Q    Q       E  E  Q    Q       E  E  Q    Q       E  E  Q    Q
E||--5--5--5----4----|--3--3--3----4----|--5--5--5----4----|--3--3--3----4----|
B||--5--5--5----5----|--5--5--5----5----|--5--5--5----5----|--5--5--5----5----|
G||--6--6--6----6----|--6--6--6----6----|--6--6--6----6----|--6--6--6----6----|
D||------------------|------------------|------------------|------------------|
A||------------------|------------------|------------------|------------------|
E||------------------|------------------|------------------|------------------|

  Q    E  E  Q       Q    E  E  Q       Q    E  E  Q       E  E  E  E  E  E
--5----------5----|----------0--6----|-------------7----|--9--6--3--0--------|
--5-------5-------|-------2----------|----------7-------|--8-----2-----2-----|
--6----6----------|------------------|-------7----------|-----------------2--|
--7---------------|--4---------------|--9---------------|--7-----------------|
------------------|------------------|------------------|--------------0-----|
------------------|------------------|------------------|--------------------|

    Q    E  E  Q       Q    E  E  Q       Q    E  E  Q       Q    E  E  E  E
|-------------------|------------------|------------------|-------------------|
|-------------------|------------------|------------------|-------------2-----|
|*-------------2----|------------------|-------------2----|--0-------0--1-----|
|*--4----0--4-------|--3----------3----|--4----0--4-------|--2----2-----3-----|
|---5---------------|--4----0--4-------|--5---------------|-------------------|
|-------------------|------------------|------------------|-------------------|

  Q    E  E  Q       Q    E  E  Q       Q    Q    Q       H        Q
------------------|-------0-----2----|--3----0---------|--L-------------|
-------0-----2----|--3----2-----3----|--0---------4----|--3--------2----|
--2----0-----2----|--4-------2-------|-----------------|----------------|
--4----0--4-------|-------0----------|-----------------|----------------|
------------------|------------------|-----------------|----------------|
------------------|------------------|-----------------|----------------|

  Q    E  E  Q       Q    E  E  Q       Q    E  E  Q       Q    E  E  Q
------------------|------------------|------------------|------------------|
-------------0----|------------------|-------------0----|-------------0----|
--0-------0-------|-------------2----|--0-------0-------|--2-------0-------|
--2----2----------|--1----1--4-------|--2----2----------|-------2----------|
------------------|--2---------------|------------------|--4---------------|
------------------|------------------|------------------|------------------|

  Q    E  E  Q       Q    E  E  Q        E  E  E  E  E  E
------------------|--0----2-----3----|---7--------1--4--7--|
--2----3-----4----|--2----3-----5----|---9--0--3-----------|
--2----4--0-------|-------2--4--6----|--10-----------------|
-------2----------|------------------|---------------------|
------------------|------------------|---------------------|
------------------|------------------|---------------------|

  E  E  E  E  E  E     E  E  Q    Q       E  E  E  E  E  E     E  E  Q    Q
--5--2--------------|--3--3--3----3----|-----------------3--|--2--2--2----2----|
--7-----3-----------|--5--5--5----5----|--0-----------0-----|--3--3--3----3----|
--7--------2--------|--4--4--4----4----|--0--0-----0--------|--2--2--2----2----|
--------------4--1--|--2---------------|--------2-----------|--0---------------|
--------------------|------------------|--------------------|------------------|
--------------------|------------------|--------------------|------------------|

  E  E  E  E  E  E     E  E  Q    Q       E  E  E  E  E  E     Q.     E  E  E
-----------------2--|--0--0--0----0----|-----------------0--|---------------0--|
--------------------|--2--2--2----2----|--------------------|--3------2--3-----|
--2-----------2-----|--0--0--0----0----|--0-----------0-----|------------------|
--4--4--0--4--------|------------------|--2--2-----2--------|--4---------------|
--------------------|--4---------------|--------4-----------|------------------|
--------------------|------------------|--------------------|------------------|

  Q    Q    Q       E  E  Q    Q       E  E  E  E  E  E     E  E  Q    Q
--2--------------|--3--3--3----3----|-----------------3--|--2--2--2----2----|
--1--------------|--5--5--5----5----|--0-----------0-----|--3--3--3----3----|
--2--------------|--4--4--4----4----|--0--0-----0--------|--2--2--2----2----|
--4---------1----|--2---------------|--------2-----------|--0---------------|
-------3---------|------------------|--------------------|------------------|
-----------------|------------------|--------------------|------------------|

  E  E  E  E  E  E     Q    Q    Q       Q    Q    Q       H.
-----------------2--|--0--------------|-------5----2----|----------------||
--------------------|-------0----1----|--2--------------|--3-------------||
--2-----------2-----|--0--------------|--2--------------|--2------------*||
--4--4--0--4--------|--2--------------|--2--------------|--0------------*||
--------------------|--4--------------|--0--------------|----------------||
--------------------|-----------------|-----------------|----------------||

  E  E  Q    Q       E  E  Q    Q       Q    Q    Q       Q     Q    Q
------------------|--------0----1----|--2--------------|-------10---------|
--1--1--1----2----|--3--3------------|--1---------3----|------------------|
--2--2--2----2----|--2--2--2----2----|-----------------|--7---------------|
--0---------------|--0---------------|-------4---------|------------------|
------------------|------------------|-----------------|------------------|
------------------|------------------|-----------------|------------------|

  Q    Q    Q       Q    Q    Q       Q    Q    Q       Q    Q    Q
-----------------|-------5---------|--3--------------|-------0---------|
--0---------3----|--L--------------|------------0----|--L----0---------|
--0--------------|-----------------|-----------------|-----------------|
-------0----0----|-------0----0----|-------0----0----|-------0----0----|
-----------------|-----------------|-----------------|-----------------|
--3--------------|-----------------|--3--------------|-----------------|

  Q    Q    Q       Q    Q    Q       Q    Q    Q       Q    Q    Q
-----------------|--3----2----0----|-----------------|-----------------|
--1----0----1----|--5----3----1----|--0--------------|--L--------------|
-----------------|-----------------|-----------------|-----------------|
-------2----2----|-----------------|-------0----0----|-------0----0----|
--0--------------|-------3----3----|-----------------|-----------------|
-----------------|-----------------|--3--------------|-----------------|

  Q    Q    Q       Q    Q    Q       Q    Q    Q       Q    Q    Q
-----------------|-------7---------|--8---------0----|--L----5---------|
--0---------3----|--L--------------|-----------------|-----------------|
--0--------------|-----------------|-----------------|-----------------|
-------0----0----|-------0----0----|-----------------|-------2----2----|
-----------------|-----------------|--0----7----7----|--0--------------|
--3--------------|-----------------|-----------------|-----------------|

  Q    Q    Q       Q    Q    Q       Q    E  E  Q       Q    Q    Q
--2----3----2----|--1---------2----|--7---------------|-----------------|
-------0----0----|--2----0----0----|------------------|-----------------|
-----------------|-----------------|------------------|-----------------|
-----------------|-----------------|-------4--4--4----|--4----4----4----|
--2--------------|--2--------------|-------6--6--6----|--6----6----6----|
-----------------|-----------------|------------------|-----------------|

  Q    E  E  E  E     Q    E  E  E  E     Q    E  E  E  E     Q    E  E  E  E
-------------------|--8----------------|--7----5-----3-----|--7----------------|
--1-------1-----1--|--5-------1-----1--|--8----7--0--5--0--|--8-------0-----0--|
--2----2-----2-----|-------2-----2-----|-------0-----0-----|-------0-----0-----|
-------------------|-------------------|-------------------|-------------------|
-------------------|-------------------|-------------------|-------------------|
-------------------|-------------------|-------------------|-------------------|

  Q    E  E  E  E     Q    E  E  E  E     Q    E  E  E  E     Q    E  E  E  E
-------------------|--5----------------|--7----5-----3-----|-------------------|
--3----------------|--7----------------|--8----3--0--3--0--|--3-------0-----0--|
----------2-----2--|----------2-----2--|-------0-----0-----|--4----0-----0-----|
--4----4-----4-----|-------4-----4-----|-------------------|-------------------|
-------------------|-------------------|-------------------|-------------------|
-------------------|-------------------|-------------------|-------------------|

  Q    E  E  E  E     Q    E  E  E  E     Q    E  E  E  E     Q    E  E  E  E
--0----------------|--8----------------|--7----5-----3-----|--7----------------|
--1-------1-----1--|--5----------------|--8----7--0--5--0--|--8-------0-----0--|
-------2-----2-----|----------5-----5--|-------0-----0-----|-------0-----0-----|
-------------------|-------7-----7-----|-------------------|-------------------|
-------------------|-------------------|-------------------|-------------------|
-------------------|-------------------|-------------------|-------------------|

  Q    E  E  E  E     E  E  E  E  E  E     Q    E  E  Q       Q    Q    Q
-------2--3--2--3--|--2--3--2--3--2--3--|--2---------------|-----------------|
-------------------|--------------------|-------2--2--2----|--2----2----2----|
-------------------|--------------------|-------4--4--4----|--3----3----3----|
--4----------------|--------------------|------------------|-----------------|
-------------------|--------------------|------------------|-----------------|
--2----------------|--------------------|------------------|-----------------|

  Q    Q    Q       Q    Q    Q       Q    E  E  E  E     Q    Q    Q
-----------------|--2--------------|--2----------------|-----------------|
-------3----0----|-------3----0----|----------------0--|--2--------------|
-----------------|-----------------|-------3--1--3-----|-------3---------|
-------0----0----|-------0----0----|-------2-----2-----|-------2----4----|
--2--------------|-----------------|--4----------------|------------7----|
-----------------|--2--------------|-------------------|--2--------------|

  Q    Q    Q       Q    Q    Q       Q    E  E  E  E     Q    Q    Q
--0--------------|--0--------------|-------------------|-----------------|
-------0---------|-------0---------|--3----2--0--2--3--|--2----0---------|
------------0----|------------0----|-------------------|-----------------|
-------2----2----|-------2----2----|--4----4-----4-----|-------4----4----|
-----------------|-----------------|--2----5-----5-----|-------5----5----|
--0--------------|--3--------------|-------------------|--2--------------|

  E  E  E  E  E  E     Q    Q    Q       E  E  E  E  E  E     Q    Q    Q
--------------------|-----------------|--------------------|--0--------------|
--------------------|--3----2----0----|-----0--2-----0--2--|-------2---------|
--------1--------1--|-----------------|--2-----0--2--0-----|--0----0----0----|
--2--4--0--2--0-----|--4----0----0----|--------------------|-------2---------|
--------------------|-----------------|--0-----------------|--0---------4----|
--0-----------------|--0--------------|--------------------|-----------------|

  E  E  E  E  E  E     E  E  E  E  E  E     Q    Q    Q       H        Q
--------------------|--------------------|--0--------------|--L-------------|
--0--2--3--0--2--3--|--0--2--3--0--2--3--|--2--------------|--L-------------|
--0-----------------|--0-----------------|-------2----1----|--0-------------|
--------2-----2-----|--------2-----2-----|-----------------|----------------|
--------------------|--------------------|-----------------|-----------0----|
--0-----------------|--0-----------------|-----------------|----------------|

  Q    E  E  Q       Q    E  E  Q       Q    E  E  Q       Q    E  E  E  E
------------------|------------------|------------------|-------------------|
------------------|------------------|------------------|-------------2-----|
--2----------2----|------------------|-------------2----|--0-------0--1-----|
--4----0--4-------|--3----------3----|--4----0--4-------|--2----2-----3-----|
--5----------0----|--4----0--4-------|--5---------------|-------------------|
------------------|------------------|------------------|-------------------|

  Q    E  E  Q       Q    E  E  Q       Q    Q    Q       H        Q
------------------|-------0-----2----|--3----0---------|--L-------------|
-------0-----2----|--3----2-----3----|--0---------4----|--3--------2----|
--2----0-----2----|--4-------2-------|-----------------|----------------|
--4----0--4-------|-------0----------|-----------------|----------------|
------------------|------------------|-----------------|----------------|
------------------|------------------|-----------------|----------------|

  Q    E  E  Q       Q    E  E  Q       Q    E  E  Q       Q    E  E  Q
------------------|------------------|------------------|------------------|
-------------0----|------------------|-------------0----|-------------0----|
--0-------0-------|-------------2----|--0-------0-------|--2-------0-------|
--2----2----------|--1----1--4-------|--2----2----------|-------2----------|
------------------|--2---------------|------------------|--4---------------|
------------------|------------------|------------------|------------------|

  Q    E  E  Q       Q    E  E  Q        E  E  E  E  E  E
------------------|--0----2-----3----|---7--------1--4--7--|
--2----3-----4----|--2----3--0--2----|---9--0--3-----------|
--2----4--0-------|-------2----------|--10-----------------|
-------2----------|------------------|---------------------|
------------------|------------------|---------------------|
------------------|------------------|---------------------|

  E  E  E  E  E  E     E  E  Q    Q       E  E  E  E  E  E     E  E  Q    Q
--5--2--------------|--3--3--3----3----|-----------------3--|--2--2--2----2----|
--7-----3-----------|--5--5--5----5----|--0-----------0-----|--3--3--3----3----|
--7--------2--------|--4--4--4----4----|--0--0-----0--------|--2--2--2----2----|
--------------4--1--|--2---------------|--------2-----------|--0---------------|
--------------------|------------------|--------------------|------------------|
--------------------|------------------|--------------------|------------------|

  E  E  E  E  E  E     E  E  Q    Q       E  E  E  E  E  E     Q.     E  E  E
-----------------2--|--0--0--0----0----|-----------------0--|---------------0--|
--------------------|--2--2--2----2----|--------------------|--3------2--3-----|
--2-----------2-----|--0--0--0----0----|--0-----------0-----|------------------|
--4--4--0--4--------|------------------|--2--2-----2--------|--4---------------|
--------------------|--4---------------|--------4-----------|------------------|
--------------------|------------------|--------------------|------------------|

  Q    Q    Q       E  E  Q    Q       E  E  E  E  E  E     E  E  Q    Q
--2--------------|--3--3--3----3----|-----------------3--|--2--2--2----2----|
--1--------------|--5--5--5----5----|--0-----------0-----|--3--3--3----3----|
--2--------------|--4--4--4----4----|--0--0-----0--------|--2--2--2----2----|
--4---------1----|--2---------------|--------2-----------|--0---------------|
-------3---------|------------------|--------------------|------------------|
-----------------|------------------|--------------------|------------------|

  E  E  E  E  E  E     Q    Q    Q       Q    Q    Q       H.
-----------------2--|--0--------------|-------5----2----|---------------|
--------------------|-------0----1----|--2--------------|--3------------|
--2-----------2-----|--0--------------|--2--------------|--2------------|
--4--4--0--4--------|--2--------------|--2--------------|--0------------|
--------------------|--4--------------|--0--------------|---------------|
--------------------|-----------------|-----------------|---------------|

  Q    Q    Q       Q    Q    Q       H.              H.
-----------------|------------0----|--2------------|--3------------|
------------0----|--2----3----2----|--0------------|--0------------|
-------2----1----|--2----2---------|---------------|---------------|
-----------------|-------4----2----|--1------------|--2------------|
-------0---------|-----------------|---------------|---------------|
------------4----|--3----2----0----|---------------|---------------|

  Q    E  E  E  E     E  E  E  E  E  E     Q    E  E  E  E
--7----------------|--------------------|-------------------|
-------------------|-----------------0--|--2----------------|
--7----------------|-----------0--2-----|-------------------|
--5----------------|--0--2--4-----------|----------------0--|
----------0--2--4--|--------------------|-------0--2--4-----|
-------3-----------|--------------------|-------------0--2--|

  E  E  E  E  E  E     Q    Q    Q       Q    Q    Q       Q    Q    Q
--------------------|-----------------|-----------------|-----------------|
--------------0--2--|--3--------------|-----------------|------------2----|
--------0--2--------|-------1----2----|-----------------|------------0----|
--2--4--------0--2--|-------3----4----|--3----4---------|--0---------2----|
-----0--2--4--------|-------4----5----|--4----5----0----|-----------------|
--3-----------------|-----------------|--6----7----3----|--2--------------|

  Q    Q    Q
-----------------||
--3--------------||
--2--------------||
--4--------------||
-----------------||
-----------------||

Duration Legend
---------------
W - whole
H - half
Q - quarter
E - 8th
S - 16th
T - 32nd
X - 64th
. - note dotted
|-n-|  - n-tuplets