Login or Register to remove this ad. | Advertise Here

Light a Fire in your Smouldering Heart!! (Dragon Ball Z: Budokai 2) Guitar Tab

Submitted: Nov 10, 2008 by hslesperance (Last updated: Nov 14, 2008)

5
Average: 5 (3 votes)
Download | Listen
Game: Dragon Ball Z: Budokai 2
Composer(s): Kenji Yamamoto (DBZ)
Style: Transcription
Series: Dragon Ball

AutoScroll: Slow | Medium | Fast
DragonBall Z: Budokai 2
Opening Theme
Composed by Kenji Yamamoto
Tabbed by hslesperance
11/10/08

Standard Tuning

Rythm Guitar Intro
e---------------------------------------------------------------
B---------------------------------------------------------------
G---------------------------------------------------------------
D---3-----------5--5--3------------5--5--3------------3---------
A---1--5--3-5---3--3--1--5--3-5----3--3--1--5----5-5--1--3-5----
E------3--1-3------------3--1-3-------------3----3-3-----1-3----

e---------------------------------------------------------------
B---------------------------------------------------------------
G---------------------------------------------------------------
D---3-----------5--5--3------------5--5--3-------1--------3-----
A---1--5--3-5---3--3--1--5--3-5----3--3--1--5----1--------3-----
E------3--1-3------------3--1-3-------------3-------------------

Lead Guitar at 00:19
e---------------------------------------------------------------
B---3-3-3-3---------------------3-3-3-3-------------------------
G--------------------------------------------------------3b4r---
D-----------5--5--5-5-5-3-5--5----------5--5--5-5-5-3--5--------
A---------------------------------------------------------------
E---------------------------------------------------------------

e---------------------------------------------------------------
B------------------------------------3-3-3-3--------------------
G------3h5-3h5-3--------3h5-3h5-3-------------------------------
D---5--------------5--------------------------5--5--5-5-5-3-5---
A---------------------------------------------------------------
E---------------------------------------------------------------

e---------------------------------------------------------------
B-----3-3-3-6b7--3----------------------------------------------
G-------------------5--3--5b6r-3--3h5-3h5-3-------------3-------
D---5------------------------------------------5----3-5-----5---
A---------------------------------------------------------------
E---------------------------------------------------------------

e-------------------------------3-------------------------------
B-----------------------------3----3----------------------------
G---------3---------------------------5--3--5b6r--3-------------
D---5-5-5---5--3-5----------------------------------------------
A---------------------------------------------------------------
E---------------------------------------------------------------

e---------------------------------------------------------------
B-----------------------------------------------3-3-3-----3-----
G---------3--5b6r--5-3----2-2-2-2-2-2-4-2--2----------5-6-------
D---5-5-5-------------------------------------------------------
A---------------------------------------------------------------
E---------------------------------------------------------------

e---------------------------------------------------------------
B-------5--7b8-7--5----------------------5--7b8-7--5------------
G---4-7--------------7--7/9--7--4----4-7--------------7--4------
D---------------------------------------------------------------
A---------------------------------------------------------------
E---------------------------------------------------------------

e--------------------------3-3/5--------------------------------
B------5--7--5--------5-5----------3---5------------------------
G---7-------------4-7---------------------4--2-----2b3r---------
D-----------------------------------------------5--------5------
A---------------------------------------------------------------
E---------------------------------------------------------------

e----------------------------------------------3--2-------------
B---5--5--5--3--5b7--5------------------3-5-5--------5-3--3b4---
G-------------------------------------4-------------------------
D---------------------------------------------------------------
A---------------------------------------------------------------
E---------------------------------------------------------------

e-------------------------3--2----------------------------------
B---5--3---------3-5-5-5--------5-3-----3--5--5b7--5------3-5---
G---------4----4---------------------4------------------4-------
D---------------------------------------------------------------
A---------------------------------------------------------------
E---------------------------------------------------------------

e--------3-5----------------------------------------------------
B---5-5---------3----5--------------------5--5--5--3--5b7---5---
G-----------------------4--2-----2b3r---------------------------
D-----------------------------5--------5------------------------
A---------------------------------------------------------------
E---------------------------------------------------------------

b - bend
r - release
h - hammer on
/ - slide up

3 comments on Light a Fire in your Smouldering Heart!!

awesome!!!

this sounds great man!!!

Amazing!

5

:D

Oh lawd

5

Good god, this tab is perfect. How did I miss this tab?