Login or Register to remove this ad. | Advertise Here

Starlight Valley (Dark Cloud 2) Bass Tab

Submitted: Oct 02, 2007 by archard (Last updated: May 07, 2008)

0
Download | Listen
Game: Dark Cloud 2
Composer(s): Tomohito Nishiura
Style: Transcription

AutoScroll: Slow | Medium | Fast
Transcribed by Aaron Morison (somerandom01@hotmail.com)

Gtr I (E A D G)

  Q=75
 4/4
  Gtr I
  W          W          W          W
|----------|----------|----------|------|
|----------|----------|----------|------|
|----------|----------|----------|------|
|----------|----------|----------|------|

  W          W          W          H    E E E E
|----------|----------|----------|--------------|
|----------|----------|----------|--------------|
|----------|----------|----------|------3---5---|
|----------|----------|----------|--------------|

  Q.   S S Q.   S S   Q.   S S +Q.   S S   Q.   S S Q.   S S
|-------------------|--------------------|-------------------|
|-------------------|--------------------|-------------------|
|-3------3-1------1-|--------------------|-3------3-1------1-|
|-------------------|-4------4-(4)-----4-|-------------------|

  Q.   S S +Q.   S S   Q.   S S Q.   S S   Q.   S S +Q.   S S
|--------------------|-------------------|--------------------|
|--------------------|-------------------|--------------------|
|--------------------|-4------4-6------6-|--------------------|
|-1------1-(1)-----1-|-------------------|-8------8-(8)-----8-|

  Q.   S S  H      Q.   S S Q  Q    Q.   S S Q.   S S
|----------------|----------------|-------------------|
|----------------|--------6----6--|-------------------|
|----------------|----------------|-4------4-4------4-|
|-9------9-11----|-4--------4-----|-------------------|

  Q.   S S Q.   S S   Q.   S S Q.   S S   Q.   S S +Q.   S S
|-------------------|-------------------|--------------------|
|-------------------|-------------------|--------------------|
|-3------3-3------3-|-4------4-4------4-|-6------6-(6)-----6-|
|-------------------|-------------------|--------------------|

  Q.   S S Q.   S S   Q.   S S Q.   S S   Q.   S S H
|-------------------|-------------------|---------------|
|-------------------|-------------------|---------------|
|-4------4-4------4-|-3------3-3------3-|-4------4-6----|
|-------------------|-------------------|---------------|

  Q.   S S Q  Q    Q.   S S Q.   S S   Q.   S S +Q.   S S
|----------------|-------------------|---------------------|
|----------6-----|-------------------|---------------------|
|----------------|-3------3-1------1-|---------------------|
|-4------4----3--|-------------------|-4------4-(4)-----4--|

  Q.   S S Q.   S S   Q.   S S +Q.   S S   Q.   S S Q.   S S
|-------------------|--------------------|-------------------|
|-------------------|--------------------|-------------------|
|-3------3-1------1-|--------------------|-4------4-6------6-|
|-------------------|-1------1-(1)-----1-|-------------------|

  Q.   S S +Q.   S S   Q.   S S  H      Q.   S S Q  Q
|--------------------|----------------|----------------|
|--------------------|----------------|--------6----6--|
|--------------------|----------------|----------------|
|-8------8-(8)-----8-|-9------9-11----|-4--------4-----|

  Q.   S S Q.   S S   Q.   S S Q.   S S   Q.   S S Q.   S S
|-------------------|-------------------|-------------------|
|-------------------|-------------------|-------------------|
|-4------4-4------4-|-3------3-3------3-|-4------4-4------4-|
|-------------------|-------------------|-------------------|

  Q.   S S +Q.   S S   Q.   S S Q.   S S   Q.   S S Q.   S S
|--------------------|-------------------|-------------------|
|--------------------|-------------------|-------------------|
|-6------6-(6)-----6-|-4------4-4------4-|-3------3-3------3-|
|--------------------|-------------------|-------------------|

  Q.   S S H      Q.   S S Q  Q
|---------------|----------------*|
|---------------|----------6-----*|
|-4------4-6----|----------------*|
|---------------|-4------4----3--*|