Login or Register to remove this ad. | Advertise Here

Starlight Valley (Dark Cloud 2) Guitar Tab

Submitted: Oct 02, 2007 by archard (Last updated: Sep 18, 2009)

5
Average: 5 (2 votes)
Download | Listen
Game: Dark Cloud 2
Composer(s): Tomohito Nishiura
Style: 2 or more instruments, Transcription

AutoScroll: Slow | Medium | Fast
Transcribed by Aaron Morison (somerandom01@hotmail.com)

Gtr I (E A D G B E) - melody
Gtr II (E A D G B E)

  Q=75
 4/4
  Gtr I
   Q.      E  E  S S  E  S S    Q    +S  S  E  +Q    E  S  S
|-11------10-11-10---11-13---|-------------------------------|
|----------------------------|-13---(13)---13-(13)-----13-15-|
|----------------------------|-------------------------------|
|----------------------------|-------------------------------|
|----------------------------|-------------------------------|
|----------------------------|-------------------------------|
|
| Gtr II
|  E  E Q     E  E    Q         E E   E     E   E  E E  E
|----------------------------|-------------------------------|
|----------------------------|--------------4----------------|
|-------3-------------3------|--------5----------------------|
|-----5----------3-----------|----5------------------8-------|
|--3----------1--------------|---------------------6---10----|
|----------------------------|--4---------------4------------|

   Q.       E  E  S S  E  S S
|-----------------------------|
|-16-------15-16-15---16-18---|
|-----------------------------|
|-----------------------------|
|-----------------------------|
|-----------------------------|
|
|  E   E Q     E  E    Q
|-----------------------------|
|-----------------------------|
|-----------------------------|
|--------8-------------8------|
|-----10----------8-----------|
|--8-----------6--------------|

   Q    S S  E  +Q     E  E
|---------------------------|
|-20---18---18-(18)---16-15-|
|---------------------------|
|---------------------------|
|---------------------------|
|---------------------------|
|
|  E E  E    E   E  E  E  E
|---------------------------|
|------------1------------1-|
|-------2-------------------|
|----------------------3----|
|----3--------------3-------|
|--1-------------1----------|

   H         +S  S  E  E  S S    E  S S  H       E  S  S
|------------------15-13-11---|-13------------------------|
|-16--------(16)--------------|----11---11---------13-15--|
|-----------------------------|---------------------------|
|-----------------------------|---------------------------|
|-----------------------------|---------------------------|
|-----------------------------|---------------------------|
|
|  E E E  E   E     E  E  E      E  E    E E E E E  E
|-----------------------------|---------------------------|
|-----------------------------|---------------------------|
|-----------------------------|------------7-----3--------|
|------8-10------------6--8---|----------8-----5----5-----|
|----6--------------6---------|-----8---------------------|
|--4----------4---------------|--6-----------3------------|

   H        +S  S  E  E  S S
|-----------------11-10-11---|
|-13-------(13)--------------|
|----------------------------|
|----------------------------|
|----------------------------|
|----------------------------|
|
|  E E E E   E     E  E  E
|----------------------------|
|----------------------------|
|------------------------4---|
|------6-8------------6------|
|----6-------------6---------|
|--4---------7---------------|

   H           +E  E E S  S    Q.      E  E  S S  E  S S
|-10----------(10)-----8-10-|-11------10-11-10---11-13---|
|---------------------------|----------------------------|
|---------------------------|----------------------------|
|---------------------------|----------------------------|
|---------------------------|----------------------------|
|---------------------------|----------------------------|
|
|  S S E +Q    +H              E  E Q     E  E    Q
|------1-(1)---(1)----------|----------------------------|
|----3----------------------|----------------------------|
|----3----------------------|-------3-------------3------|
|----3----------------------|-----5----------3-----------|
|--1-5----------------------|--3----------1--------------|
|--1------------------------|----------------------------|

   Q    +S  S  E  +Q    E  S  S    Q.       E  E  S S  E  S S
|-------------------------------|-----------------------------|
|-13---(13)---13-(13)-----13-15-|-16-------15-16-15---16-18---|
|-------------------------------|-----------------------------|
|-------------------------------|-----------------------------|
|-------------------------------|-----------------------------|
|-------------------------------|-----------------------------|
|
|  E E   E     E   E  E E  E       E   E Q     E  E    Q
|-------------------------------|-----------------------------|
|--------------4----------------|-----------------------------|
|--------5----------------------|-----------------------------|
|----5------------------8-------|--------8-------------8------|
|---------------------6---10----|-----10----------8-----------|
|--4---------------4------------|--8-----------6--------------|

   Q    S S  E  +Q     S  S  S  S
|---------------------------------|
|-20---18---18-(18)---18-17-18-20-|
|---------------------------------|
|---------------------------------|
|---------------------------------|
|---------------------------------|
|
|  E E  E    E   E  E  E     E
|---------------------------------|
|------------1---------------1----|
|-------2-------------------------|
|----------------------3----------|
|----3--------------3-------------|
|--1-------------1----------------|

   H        +S  S  E  E  S S
|----------------------------|
|-21-------(21)---20-21-23---|
|----------------------------|
|----------------------------|
|----------------------------|
|----------------------------|
|
|  E E E E   E     E  E  E
|----------------------------|
|--------1-------------------|
|------1-----------0--1--3---|
|----3-------1---------------|
|--4-------------------------|
|----------------------------|

   E  S S  H       E  S  S    H        +S  S  E  E  S S
|--------------------------|----------------------------|
|-23-----------------------|-21-------(21)---20-21-23---|
|----20---20------------20-|----------------------------|
|--------------------22----|----------------------------|
|--------------------------|----------------------------|
|--------------------------|----------------------------|
|
|  E  E    E E E E E  E       E E E E   E     E  E  E
|--------------------------|----------------------------|
|------------4-------------|--------4---------------4---|
|----------3-------3-------|------6---------------------|
|-----1----------5----5----|----6-------------5--6------|
|--3-----------3-----------|--4---------6---------------|
|--------------------------|----------------------------|

   H           +E  E  E  E    Q.      E  +Q    E  S  S
|--------------------------|-20------------------------|
|-21----------(21)------18-|------------------------18-|
|--------------------20----|---------20-(20)-----20----|
|--------------------------|---------------------------|
|--------------------------|---------------------------|
|--------------------------|---------------------------|
|
|  S S E +Q    +H             E  E E  E   E  E E  E
|------4-(4)---(4)---------|---------------------------|
|----4---------------------|----------4----------------|
|----5---------------------|-------6-----------5-------|
|----6---------------------|-----6-----------6----6----|
|--3-6---------------------|--4-----------4------------|
|--4-----------------------|---------------------------|

   Q.       E  +E   E  E  E    Q     +S  S  S  S  +S  S  E  +S   E    S
|-18------------------------|-16----(16)---15-13-(13)---18-(18)-16---18---|
|----------16-(16)-------16-|---------------------------------------------|
|---------------------17----|---------------------------------------------|
|---------------------------|---------------------------------------------|
|---------------------------|---------------------------------------------|
|---------------------------|---------------------------------------------|
|
|  E  E  E  E   E   E  E  E    E  E   E     E      E     E   E     E
|---------------------------|---------------------------------------------|
|---------------------------|---------------------------------------------|
|-----------8-------------8-|--------------------------------8------------|
|-----8----------------8----|--------11----13------------8---------6------|
|-------10---------10-------|----11---------------------------------------|
|--8------------8-----------|--9-------------------9----------------------|

   Q.      S  S  +E  E  E  E    Q.        E  +Q      E  S  S
|-18------16-18-(18)---------|-20--------18-(18)-------------|
|----------------------16-18-|-------------------------16-18-|
|----------------------------|-------------------------------|
|----------------------------|-------------------------------|
|----------------------------|-------------------------------|
|----------------------------|-------------------------------|
|
|  E  E E  E      E  E  E  E    E   E  E  E   E   E  E  E
|----------------------------|-------------------------------|
|----------4-----------------|-------------------------------|
|----------------------------|-------------------------------|
|-----8-6------------6--8-10-|--------11-13---------10-------|
|--6--------------6----------|-----11------------11----11----|
|----------------------------|--9-------------9--------------|

   Q.       E  +E   E  E  E    Q.        E  E  E  +S   E.
|-18-------20-(20)----------|---------------------------------|
|---------------------------|-21--------20----21-(21)-23------|
|------------------------20-|---------------------------------|
|---------------------22----|---------------------------------|
|---------------------------|---------------------------------|
|---------------------------|---------------------------------|
|
|  E  E  E  E   E   E  E  E    E   E  E  E  E  E   E       E
|---------------------------|---------------------------------|
|---------------------------|---------------------------------|
|-----------8-------------8-|---------------------------------|
|-----8---------------10----|--------11-13----------------13--|
|-------10---------10-------|-----11----------11--13----------|
|--8------------8-----------|--9-----------11-----------------|

   H           +S  S E  E  E    Q.      E  E  S S  E  S S
|----------------------------|----------------------------|
|-21----------(21)-----------|-----------------------18---|
|----------------------------|-20------19-20-19---20------|
|----------------------22-24-|----------------------------|
|----------------------------|----------------------------|
|----------------------------|----------------------------|
|
|  S S E +Q    +H               E  E Q     E  E    Q
|------4-(4)---(4)-----------|----------------------------|
|----4-----------------------|----------------------------|
|----5-----------------------|-------3-------------3------|
|----6-----------------------|-----5----------3-----------|
|--3-6-----------------------|--3----------1--------------|
|--4-------------------------|----------------------------|

   Q    +S  S  E  +Q    E  S  S
|-------------------------------|
|----------------------------15-|
|-17---(17)---17-(17)-----17----|
|-------------------------------|
|-------------------------------|
|-------------------------------|
|
|  E E   E     E   E  E E  E
|-------------------------------|
|--------------4----------------|
|--------5----------------------|
|----5------------------8-------|
|---------------------6---10----|
|--4---------------4------------|

   Q.       E  E  S S  E  S S
|-----------------------------|
|-16-------15-16-15---16-18---|
|-----------------------------|
|-----------------------------|
|-----------------------------|
|-----------------------------|
|
|  E   E Q     E  E    Q
|-----------------------------|
|-----------------------------|
|-----------------------------|
|--------8-------------8------|
|-----10----------8-----------|
|--8-----------6--------------|

   Q    S S  E  +Q     S  S  S  S    H        +S  S  E  E  S S
|---------------------------------|----------------------------|
|-20---18---18-(18)---18-17-18-20-|-21-------(21)---20-21-23---|
|---------------------------------|----------------------------|
|---------------------------------|----------------------------|
|---------------------------------|----------------------------|
|---------------------------------|----------------------------|
|
|  E E  E    E   E  E  E     E       E E E E   E     E  E  E
|---------------------------------|----------------------------|
|------------1---------------1----|--------1-------------------|
|-------2-------------------------|------1-----------0--1--3---|
|----------------------3----------|----3-------1---------------|
|----3--------------3-------------|--4-------------------------|
|--1-------------1----------------|----------------------------|

   E  S S  H       E  S  S    H        +S  S  E  E  S S
|--------------------------|----------------------------|
|-23-----------------------|-21-------(21)---20-21-23---|
|----20---20------------20-|----------------------------|
|--------------------22----|----------------------------|
|--------------------------|----------------------------|
|--------------------------|----------------------------|
|
|  E  E    E E E E E  E       E E E E   E     E  E  E
|--------------------------|----------------------------|
|------------4-------------|--------4---------------4---|
|----------3-------3-------|------6---------------------|
|-----1----------5----5----|----6-------------5--6------|
|--3-----------3-----------|--4---------6---------------|
|--------------------------|----------------------------|

   H           +E  E  E  E    Q.      E  +Q    E  S  S
|--------------------------|-20------------------------|
|-21----------(21)------18-|------------------------18-|
|--------------------20----|---------20-(20)-----20----|
|--------------------------|---------------------------|
|--------------------------|---------------------------|
|--------------------------|---------------------------|
|
|  S S E +Q    +H             E  E E  E   E  E E  E
|------4-(4)---(4)---------|---------------------------|
|----4---------------------|----------4----------------|
|----5---------------------|-------6-----------5-------|
|----6---------------------|-----6-----------6----6----|
|--3-6---------------------|--4-----------4------------|
|--4-----------------------|---------------------------|

   Q.       E  +E   E  E  E    Q     +S  S  S  S  +S  S  E  +S   E    S
|-18------------------------|-16----(16)---15-13-(13)---18-(18)-16---18-|
|----------16-(16)-------16-|-------------------------------------------|
|---------------------17----|-------------------------------------------|
|---------------------------|-------------------------------------------|
|---------------------------|-------------------------------------------|
|---------------------------|-------------------------------------------|
|
|  E  E  E  E   E   E  E  E    E  E   E     E      E     E   E     E
|---------------------------|-------------------------------------------|
|---------------------------|-------------------------------------------|
|-----------8-------------8-|--------------------------------8----------|
|-----8----------------8----|--------11----13------------8---------6----|
|-------10---------10-------|----11-------------------------------------|
|--8------------8-----------|--9-------------------9--------------------|

   Q.      S  S  +E  E  E  E
|-18------16-18-(18)---------|
|----------------------16-18-|
|----------------------------|
|----------------------------|
|----------------------------|
|----------------------------|
|
|  E  E E  E      E  E  E  E
|----------------------------|
|----------4-----------------|
|----------------------------|
|-----8-6------------6--8-10-|
|--6--------------6----------|
|----------------------------|

   Q.        E  +Q      E  S  S    Q.       E  +E   E  E  E
|-20--------18-(18)-------------|-18-------20-(20)----------|
|-------------------------16-18-|---------------------------|
|-------------------------------|------------------------20-|
|-------------------------------|---------------------22----|
|-------------------------------|---------------------------|
|-------------------------------|---------------------------|
|
|  E   E  E  E   E   E  E  E       E  E  E  E   E   E  E  E
|-------------------------------|---------------------------|
|-------------------------------|---------------------------|
|-------------------------------|-----------8-------------8-|
|--------11-13---------10-------|-----8---------------10----|
|-----11------------11----11----|-------10---------10-------|
|--9-------------9--------------|--8------------8-----------|

   Q.        E  E  E  +S   E.       H           +S  S E  E  E
|--------------------------------|----------------------------*|
|-21--------20----21-(21)-23-----|-21----------(21)-----------*|
|--------------------------------|----------------------------*|
|--------------------------------|----------------------22-24-*|
|--------------------------------|----------------------------*|
|--------------------------------|----------------------------*|
|
|  E   E  E  E  E  E   E       E    S S E +Q    +H
|--------------------------------|------4-(4)---(4)-----------*|
|--------------------------------|----4-----------------------*|
|--------------------------------|----5-----------------------*|
|--------11-13----------------13-|----6-----------------------*|
|-----11----------11--13---------|--3-6-----------------------*|
|--9-----------11----------------|--4-------------------------*|