Login or Register to remove this ad. | Advertise Here

Peace of the World (Dark Cloud 2) Guitar Tab

Submitted: Oct 02, 2007 by archard (Last updated: Sep 18, 2009)

5
Average: 5 (5 votes)
Download | Listen
Game: Dark Cloud 2
Composer(s): Tomohito Nishiura
Style: 2 or more instruments, Transcription

AutoScroll: Slow | Medium | Fast
Peace of the World
Dark Cloud 2
Composed by Tomohito Nishiura
Tabbed by Richard Schaefer (richard@gametabs.net)
11/7/06

Guitar 1
e-------------------------------------
B--5-5s7-7-7-3s5-5-5-5-1s3-3-3-3-2-3-5
G-------------------------------------
D-------------------------------------
A-------------------------------------
E-------------------------------------

e-------------------------------------
B--5-5s7-7-8-10-10-10-10-7-7-7-7-5-3-5
G-------------------------------------
D-------------------------------------
A-------------------------------------
E-------------------------------------

e--------------------------------------
B--5-5s7-7-7-8s10-10-10-7-8-7-3-5-3-2-3
G--------------------------------------
D--------------------------------------
A--------------------------------------
E--------------------------------------

e--------------------------------
B--5-5s7-7-8-10-10-10-10---5-3--5
G--------------------------------
D--------------------------------
A--------------------------------
E--------------------------------

Now repeat, expect the last riff ends on a 10 instead of a 5 and goes into...

e--5s7---8s10-9-------------------------------------------
B---------------10---8-7--8---8s10--8--7---------10-10s12-
G------------------------------------------7-9-7----------
D---------------------------------------------------------
A---------------------------------------------------------
E---------------------------------------------------------

e--8s10--9----------------------------------------------
B-----------10------------------------------------------
G----------------9--6-7-9-9---11--9---(7)---(7)-(9)--(7)
D-------------------------------------------------------
A-------------------------------------------------------
E-------------------------------------------------------

The only part of the second guitar I could figure out is
what plays in the beginning and at times during the song.
e---------------
B-------3--2----
G----2-------2-4
D--0------------
A---------------
E---------------

2 comments on Peace of the World

good tab, easy to play

5

good tab, easy to play

love the game song and tab

5

love the game song and tab