Login or Register to remove this ad. | Advertise Here

Lunatic Wizard Laboratory (Dark Cloud 2) Guitar Tab

Submitted: Oct 02, 2007 by archard

4
Average: 4 (2 votes)
Download | Listen
Game: Dark Cloud 2
Composer(s): Tomohito Nishiura
Style: Transcription

AutoScroll: Slow | Medium | Fast
Dark Cloud 2
Lunatic Wizard Laboratory
Tabbed by Richard Schaefer (richard@gametabs.net)
7/24/06

e----------------------------------------------
B--------1h2p1---------------------------------
G--3-----------3-1-3----------3-----0h1p0------
D-----------------------------------------3-1-3
A----------------------------------------------
E----------------------------------------------

e--------------6-----8-9-9-----8-4-4-----------
B----1-2---2-4---------------------------------
G--3-------------------------------------------
D----------------------------------------------
A----------------------------------------------
E----------------------------------------------

The rest is just a jumbled mess =/