Login or Register to remove this ad. | Advertise Here

Watery Graves (Plants vs Zombies) Guitar Tab

Submitted: Jan 29, 2012 by TrangOul

5
Average: 5 (5 votes)
Download | Listen
Game: Plants vs Zombies
Composer(s): Laura Shigihara
Style: Arrangement, Fingerstyle

AutoScroll: Slow | Medium | Fast
'Watery Graves'
from Plants vs. Zombies
originally composed by Laura Shigihara
arranged by Marcus Kasperski

Standard Tuning

Note: The MIDI does not do this tab justice. It really is up to the player to bring
the song to life.

Moderato

     E  E  E  E  E  E  Q       E  E  E  E  E  E  E  E       E  E  E  E  E  E  Q     
E||-----3--2-----1--0-------|--------3-----------3------||-----3--2-----1--0-------|
B||-----------3-------------|-----3-----3-----3-----3---||-----------3-------------|
G||--0----------------------|--0-----------0-----------*||-------------------------|
D||-------------------------|--------------------------*||-------------------------|
A||-------------------------|---------------------------||-------------------------|
E||-------------------------|---------------------------||--3--------3--4----------|


                                                         1_____________________________
  E  E  S S S S E  S E.  E       E  E.  S E  E  S E.  E  |  E  E  S S S S E  E  E  E     
----------1-----------------||------3--------------------|----------1--------------1---||
-----4------4-4-3-----------||----------3----6----4------|-----4------4-4-3--3--2------||
---------------------3---0--||*-----------------------5--|----------------------------*||
-----1----------------------||*--------------------------|-----1-------------0-----3--*||
--3---------3---------------||---------------------------|--3---------3---------4------||
----------------3-----------||---3--------3--4-----------|----------------3------------||


2____________________________ 3__________________________
  E  E  S S S S E  S E.  E    |  E  E  E  E  E  E  E  E     E  E  E  E  E    E  E  E   
----------1------------------||--------------------5-----|--3--------------3g5--3-----|
-----4------4-4-3------------||--4-----6-----8-----------|-------------------------4--|
---------------------3---0--*||--------------------------|----------------------------|
-----1----------------------*||--1-----3-----5-----------|--------0--1--0-------------|
--3---------3----------------||-----1-----3-----5--3--0--|----------------------1-----|
----------------3------------||--------------------------|--3-------------------------|


    E  E  E  E  E  E  E  E     S S S  S S  S  S S S  S  S S S S S S      E  E  S E  S Q    E  S S  
|------------------------1--|-------------------8-9-10--------------|-----------------------------|
|---3--------------3--2-----|-----------8-10-11--------11-8---------|--1g3--1--1------------------|
|*--------------------------|----7-8-10---------------------7-5---0-|------------3--0-L-----------|
|*--------0--1--0-----------|-----------------------------------8---|-----------------------------|
|---------------------------|--8------------------------------------|----3--------------------3-5-|
|---2-----------------------|---------------------------------------|-----------------3-----------|


  E  E  S S S S E  E  E  E     E  E  S S S S Q    E  S S    E  E  S S S S S S S S S S S S  
----------------------------|----------------------------|--------------------------------|
----------------------------|----------3-----------------|----------------------3---4-----|
----------0-----------0--2--|--3--2--3-----0-L-----------|-----0--0-2---3---5---------5-3-|
--------3-----4-L--4--------|--------------------------3-|--5-----1-----------------------|
--6--6--6---6---5--5--5--5--|------------------------6---|----------------5-------3-------|
----------------------------|--3--3--3---3---0-----------|--------------------------------|

1_________________________                               2________________________
  E  E  E  E  E  E  E  E     E  E  E  E  E    E  E  E    |  E  E  E  E  E  Q.      
-----------------------1--|-----------------3g5--3------||------------------------|
-----------------3--2-----|--3----------------------4---||--3---------------------|
--2-----------------------|----------------------------*||--2---------------------|
--0-----------0-----------|--------0--1--0-------------*||--0-----------0---------|
--------0-----------------|----------------------1------||--------0---------------|
--------------------------|--3--------------------------||------------------------|


  E  E  E  S Q    S S S S  S    E  S S S S E  E  S S  S S S S    E  E  E  S Q    S S S S  S  
--3-----1--------------------|--------------------------------|--3-----5--------------------|
--4-----1----3----------0h-3-|--3--4-------3----------------0-|--4--------6-3----------0h-3-|
--3-----2----4--------0------|-------5---3----------------0---|--3-----5----4--------0------|
--1-----3----5---------------|-------------------0------0-----|--1-----3----5---------------|
-----1-----3-----------------|-----6---------------0h-2-------|-----1-----3-----------------|
--------------------3--------|--4-------------3---------------|--------------------3--------|


  E  S S S S E  E  S S  S S S S    E  E  E  S Q    S S S S  S    E  S S S S E  E  E  Q     
--------------------------------|--3-----1--------------------|---------------------------|
--3--4-------3----------------0-|--4-----1----3----------0h-3-|--3--4-------3-------------|
-------5---3----------------0---|--3-----2----4--------0------|-------5---3-------0-------|
-------------------0------0-----|--1-----3----5---------------|---------------------------|
-----6---------------0h-2-------|-----1-----3-----------------|-----6---------------------|
--4-------------3---------------|--------------------3--------|--4-------------3----------|


  E  E  E  S Q    S Q       S S S S E  S Q    E.  E     S S S S E  S E  S S S S S S S  
--3-----5----------------|------3-6-3----------------|------3-6-3---------------------|
--4--------6-3-----------|----4----------------------|----4----------1------------3-4-|
--3-----5----4------0----|--5------------5--------0--|--5-----------------0-2-3-5-----|
--1-----3----5-----------|----------5----------------|----------5-------3-------------|
-----1-----3-------------|--3----------3-L-----------|--3-----------------------------|
--------------------3----|------------------------3--|-------------1------L-----------|


  E  E  E  S E.  E  Q       E  E  S S S S S S S S S S S S    S S S S S S S E.  E  Q     
--6--------------5--L----|----------5---6---5-3---3-------|--------6---6-------5--L----|
-----4-------------------|--------3-----3-------6---3-----|------4-----4---------------|
--------5--------5--L----|-----2----------------------5-3-|----5-------5-------5--L----|
-------------3---L-------|--0-----L-----------------------|----------------3---L-------|
--3-----L--3--------6----|--------------------------------|--3-------L---3--------6----|
-------------------------|--------------3-L---------------|----------------------------|


  E  E  S S S E.  E  Q       S S S S S S S E.  E  Q       S S S S S S S S S S S S S S S S  
--------5-----3------1----|--------6---6-------5--L----|--------5---5---6---5-3---3-------|
--------3------------0----|------4-----4---------------|------3-----3---3-------6---3-----|
-----2------------0-------|----5-------5-------5--L----|----2-------2-----------------5-3-|
--0-----L---0-------------|----------------3---L-------|--0-------L-----------------------|
--------------------------|--3-------L---3--------6----|----------------------------------|
--------------3---L-------|----------------------------|----------------3-L---------------|


  S S S S S S S E.  E  Q       S S S S S S S S S S S S Q      
--------6---6-------5--L----|--------5---5---6---8-5-6------||
------4-----4---------------|------3-----3-------------8----||
----5-------5-------5--L----|----2-------2-----0------------||
----------------3---L-------|--0----------------------------||
--3-------L---3--------6----|-------------------------------||
----------------------------|-------------------------------||




Duration Legend
---------------
Q - quarter
E - 8th
S - 16th
. - note dotted


Tablature Legend
----------------
L - tied note
g - grace note

3 comments on Watery Graves

Thanks so much for posting

Thanks so much for posting this

<3 plants vs zombies

5

<3 plants vs zombies

Great job, Trang! I really

5

Great job, Trang! I really like this a lot.