Login or Register to remove this ad. | Advertise Here

Detective Gumshoe (Phoenix Wright: Ace Attorney) Bass/Guitar Tab

Submitted: Sep 18, 2011 by CpxAzn (Last updated: Sep 18, 2011)

5
Average: 5 (2 votes)
Download | Listen
Game: Phoenix Wright: Ace Attorney
Composer(s): Naoto Tanaka, Masakazu Sugimori
Style: 2 or more instruments, Alternate picking, Transcription
Series: Phoenix Wright

AutoScroll: Slow | Medium | Fast

Guitar Pro file contains all instruments.

Detective Gumshoe
Phoenix Wright - Ace Attorney
Masakazu Sugimori
Tabbed by CpxAzn
9/18/2011                               

Track 1
     H.           E  E       W                   E.  E.  E   
E||---------------------||--------------------|-------------|
B||---------------------||--------------------|-------------|
G||------------------7--||*--8----------------|--7----------|
D||---------------------||*-------------------|------8---5--|
A||---------------------||--------------------|-------------|
E||---------------------||--------------------|-------------|


  W                   H.           E  E     W                   E.  E.  E   
-------------------|---------------------|-------------------|-------------|
-------------------|---------------------|-------------------|-------------|
--5----------------|------------------7--|--8----------------|--7----------|
-------------------|---------------------|-------------------|------8---5--|
-------------------|---------------------|-------------------|-------------|
-------------------|---------------------|-------------------|-------------|


   Q.     H        E     H.           E  E     W                   E.  E.  E   
----------------------|---------------------|-------------------|-------------|
----------------------|---------------------|-------------------|-------------|
--10------8--------L--|------------------7--|--8----------------|--7----------|
----------------------|---------------------|-------------------|------8---5--|
----------------------|---------------------|-------------------|-------------|
----------------------|---------------------|-------------------|-------------|


  W                   H.           E  E     W                   E.  E.  E   
-------------------|---------------------|-------------------|-------------|
-------------------|---------------------|-------------------|-------------|
--5----------------|------------------7--|--8----------------|--7----------|
-------------------|---------------------|-------------------|------8---5--|
-------------------|---------------------|-------------------|-------------|
-------------------|---------------------|-------------------|-------------|


   Q.     H        E      Q.      H        E     E.   E.  E   E.   E.  E   
----------------------|-----------------------|---------------------------|
----------------------|-----------------------|--------------11-----------|
--10------8-----------|--12------10-----------|--8---10---8-------10---8--|
----------------------|-----------------------|---------------------------|
----------------------|-----------------------|---------------------------|
----------------------|-----------------------|---------------------------|


  H        H           E.   E.  E  E.  E.  E     Q.     S S  H         
--------------------|-------------------------|-----------------------|
--------------------|--------------9---8------|--8------9-8-----------|
--L-----------------|--8---10---8----------8--|-------------10--------|
--------------------|-------------------------|-----------------------|
--------------------|-------------------------|-----------------------|
--------------------|-------------------------|-----------------------|


  E.   E.  E   E.   E.  E     H        H           E.   E.  E  E.  E.  E   
---------------------------|--------------------|-------------------------|
--------------11-----------|--------------------|--------------9---8------|
--8---10---8-------10---8--|--L-----------------|--8---10---8----------8--|
---------------------------|--------------------|-------------------------|
---------------------------|--------------------|-------------------------|
---------------------------|--------------------|-------------------------|


  Q.     S S  Q    E  E     Q.     H        E     Q.     H        E   
-------------------------|---------------------|---------------------|
--8------9-8-------------|---------------------|---------------------|
-------------10----8--7--|--7------5-----------|--8------7-----------|
-------------------------|---------------------|---------------------|
-------------------------|---------------------|---------------------|
-------------------------|---------------------|---------------------|


  H.           E  E     W                   E.  E.  E     W                 
---------------------|-------------------|-------------|-------------------|
---------------------|-------------------|-------------|-------------------|
------------------7--|--8----------------|--7----------|--5----------------|
---------------------|-------------------|------8---5--|-------------------|
---------------------|-------------------|-------------|-------------------|
---------------------|-------------------|-------------|-------------------|


  H.           E  E     W                   E.  E.  E      Q.     H        E   
---------------------|-------------------|-------------|----------------------|
---------------------|-------------------|-------------|----------------------|
------------------7--|--8----------------|--7----------|--10------8--------L--|
---------------------|-------------------|------8---5--|----------------------|
---------------------|-------------------|-------------|----------------------|
---------------------|-------------------|-------------|----------------------|


  H.           E  E     W                   E.  E.  E     W                 
---------------------|-------------------|-------------|-------------------|
---------------------|-------------------|-------------|-------------------|
------------------7--|--8----------------|--7----------|--5----------------|
---------------------|-------------------|------8---5--|-------------------|
---------------------|-------------------|-------------|-------------------|
---------------------|-------------------|-------------|-------------------|


  H.           E  E     W                   E.  E.  E      Q.     H        E   
---------------------|-------------------|-------------|----------------------|
---------------------|-------------------|-------------|----------------------|
------------------7--|--8----------------|--7----------|--10------8-----------|
---------------------|-------------------|------8---5--|----------------------|
---------------------|-------------------|-------------|----------------------|
---------------------|-------------------|-------------|----------------------|


   Q.      H        E     E.   E.  E   E.   E.  E     H        H         
-----------------------|---------------------------|--------------------|
-----------------------|--------------11-----------|--------------------|
--12------10-----------|--8---10---8-------10---8--|--L-----------------|
-----------------------|---------------------------|--------------------|
-----------------------|---------------------------|--------------------|
-----------------------|---------------------------|--------------------|


  E.   E.  E  E.  E.  E     Q.     S S  H           E.   E.  E   E.   E.  E   
-------------------------|-----------------------|---------------------------|
--------------9---8------|--8------9-8-----------|--------------11-----------|
--8---10---8----------8--|-------------10--------|--8---10---8-------10---8--|
-------------------------|-----------------------|---------------------------|
-------------------------|-----------------------|---------------------------|
-------------------------|-----------------------|---------------------------|


  H        H           E.   E.  E  E.  E.  E     Q.     S S  Q    E  E   
--------------------|-------------------------|-------------------------|
--------------------|--------------9---8------|--8------9-8-------------|
--L-----------------|--8---10---8----------8--|-------------10----8--7--|
--------------------|-------------------------|-------------------------|
--------------------|-------------------------|-------------------------|
--------------------|-------------------------|-------------------------|


  Q.     H        E     Q.     H        E     H.           E  E  99x
---------------------|---------------------|----------------------||
---------------------|---------------------|----------------------||
--7------5-----------|--8------7-----------|------------------7--*||
---------------------|---------------------|---------------------*||
---------------------|---------------------|----------------------||
---------------------|---------------------|----------------------||




Duration Legend
---------------
W - whole
H - half
Q - quarter
E - 8th
S - 16th
T - 32nd
X - 64th
. - note dotted
|-n-|  - n-tuplets


Tablature Legend
----------------
L - tied note
x - dead note
g - grace note
(n) - ghost note
> - accentuded note
NH - natural harmonic
AH - artificial harmonic
TH - tapped harmonic
SH - semi harmonic
PH - pitch harmonic
h - hammer on
p - pull off
b - bend
br - bendRelease
pb - preBend
pbr - preBendRelease
brb - bendReleaseBend
\n/ - tremolo bar dip
\n - tremolo bar dive
-/n - tremolo bar Release up
/n\ - tremolo bar inverted dip
/n - tremolo bar return
-\n - tremolo bar Release down
S - shift slide
s - legato slide
/ -  slide into from below or out of upwards
\ -  slide into from above or out of downwards
~ - vibrato
W - wide vibrato
tr - trill
TP - tremolo picking
T - tapping
S - slap
P - pop
< - fade in
^ - brush up
v - brush down

1 comment on Detective Gumshoe

My favorite Phoenix Wright

My favorite Phoenix Wright song!