Login or Register to remove this ad. | Advertise Here

Mission Select (Perfect Dark Zero) Bass/Guitar Tab

Submitted: Mar 28, 2011 by A Dead Fly (Last updated: Mar 28, 2011)

0
Download | Listen
Game: Perfect Dark Zero
Composer(s): David Clynick
Style: 2 or more instruments, Transcription

AutoScroll: Slow | Medium | Fast
Artist: David Clynick
Album: Perfect Dark Zero
Song: Mission Select
Tabbed By A Dead Fly

Song transcribed to two guitars and a bass all with standard tuning

Guitar One

0:00 - 0:37

e|----------------|
B|----------------|
G|------------0---|
D|-------4--------|
A|-----2----------|
E|-0--------------|

e|----------------|
B|----------------| Play both of these three times (alternating between
G|------------0---| them)
D|-----2h4--------|
A|-3--------------|
E|----------------|

0:37 - End

e|----------------|
B|----------------|
G|--9-------------| Play once
D|----------------|
A|----------------|
E|----------------|

e|-----15--14--15-|
B|----------------| Play seven Times
G|----------------|
D|----------------|
A|----------------|
E|----------------|

e|-17--19--14--15-| Play once
B|----------------|
G|----------------|
D|----------------|
A|----------------|
E|----------------|
   *AH(8va)
e|-12-------------|
B|----------------|
G|----------------| End here and then rest for the remainder of then song
D|----------------| 
A|----------------|
E|----------------|

Guitar Two

0:13 - 0:37 (add vibrato to every note here)

e|-12-------------|----------------|----------------|----------------|
B|----------------|-12-------------|----------------|----------------|
G|----------------|----------------|----------------|----------------|
D|----------------|----------------|----------------|----------------|
A|----------------|----------------|----------------|----------------|
E|----------------|----------------|----------------|----------------|

e|----------------|----------------|----------------|----------------|
B|-13-------------|----------------|----------------|----------------|
G|----------------|-12-------------|----------------|-11-------------|
D|----------------|----------------|----------------|----------------|
A|----------------|----------------|----------------|----------------|
E|----------------|----------------|----------------|----------------|

e|----------------|----------------|----------------|--------22------|
B|----------------|----------------|----------------|----------------|
G|-12-------------|--9-------------|----------------|----------------|
D|----------------|----------------|----------------|----------------|
A|----------------|----------------|----------------|----------------|
E|----------------|----------------|----------------|----------------|

e|-20-------------|-15-------------|----------------|--------14------|
B|----------------|----------------|----------------|----------------|
G|----------------|----------------|----------------|----------------|
D|----------------|----------------|----------------|----------------|
A|----------------|----------------|----------------|----------------|
E|----------------|----------------|----------------|----------------|

0:37 - End

e|-12--12---------|-12--12-----10--|-12--12---------|-12--12-----10--|
B|----------------|----------------|----------------|----------------|
G|--9---9---------|--9---9------7--|--9---9---------|--9---9------7--|
D|----------------|----------------|----------------|----------------|
A|----------------|----------------|----------------|----------------|
E|----------------|----------------|----------------|----------------|

e|-17--17---------|-17--17-----15--|-19--19---------|-19--19-----22--|
B|----------------|----------------|----------------|----------------|
G|-14--14---------|-14--14-----12--|-16--16---------|-16--16-----19--|
D|----------------|----------------|----------------|----------------|
A|----------------|----------------|----------------|----------------|
E|----------------|----------------|----------------|----------------|

e|-10/12----------|
B|----------------|
G|--7/-9----------|
D|----------------|
A|----------------|
E|----------------|

Bass

G|----------------|----------------|----------------|----------------|
D|--2---2---------|--2---2--x-0----|--2---2---------|--2---2--x-0----|
A|----------------|----------------|----------------|----------------|
E|----------------|----------------|----------------|----------------|

G|----------------|----------------|----------------|----------------|
D|----------------|----------------|----------------|-----------0----|
A|--3---3---------|--3---3--x-1----|--3---3---------|--3---3--x------|
E|----------------|----------------|----------------|----------------|

Play those 8 bars three times then:

G|----------------|----------------|----------------|----------------|
D|--2---2---------|--2---2--x-0----|--2---2---------|--2---2--x-0----|
A|----------------|----------------|----------------|----------------|
E|----------------|----------------|----------------|----------------|

G|--2---2---------|--2---2--x-0----|--4---4---------|--4---4--x-0----|
D|----------------|----------------|----------------|----------------|
A|----------------|----------------|----------------|----------------|
E|----------------|----------------|----------------|----------------|

G|----------------|----------------|----------------|----------------|
D|--2---2---------|--2---2--x-0----|--2---2---------|--2---2--x-0----|
A|----------------|----------------|----------------|----------------|
E|----------------|----------------|----------------|----------------|

G|----------------|----------------|----------------|----------------|
D|--2---2---------|--2---2--x-0----|--2---2---------|--2---2--x-0----|
A|----------------|----------------|----------------|----------------|
E|----------------|----------------|----------------|----------------|

Then either repeat the song over or end on E:

G|----------------|
D|----------------|
A|----------------|
E|-0--------------|



Email questions or comments to azlizard13@yahoo.com
Please give me credit if you use this tab for a video