Login or Register to remove this ad. | Advertise Here

Sarutabaruta (Final Fantasy XI) Guitar Tab

Submitted: Oct 01, 2007 by archard

5
Average: 5 (2 votes)
Download | Listen
Game: Final Fantasy XI
Composer(s): Nobuo Uematsu, Kumi Tanioka, Naoshi Mizuta
Style: Transcription
Series: Final Fantasy

AutoScroll: Slow | Medium | Fast
Transcribed by Aaron Morison (somerandom01@hotmail.com)

Gtr I (B E A D G B)

  Q=120
 3/4
  Gtr I
   E E E  E E  E   E  E  E  E  E  E    E E E  E E  E
|----3-8-12-8----|-3-10-13-17-13-10-|----3-8-12-8----|
|-12-------------|------------------|----------------|
|----------------|------------------|----------------|
|-------------10-|------------------|-10----------10-|
|----------------|------------------|----------------|
|----------------|------------------|----------------|

  E  E  E  E  E  E    E E E  E E  E   E  E  E  E  E  E
|-3-10-13-18-13-10-|----3-8-12-8----|-3-10-13-17-13-10---|
|------------------|----------------|--------------------|
|------------------|----------------|--------------------|
|------------------|-10----------10-|--------------------|
|------------------|----------------|--------------------|
|------------------|----------------|--------------------|

   E E E  E E  E   E  E  E  E  E  E    E E E  E E  E
|----3-8-12-8----|-3-10-13-18-13-10-|----3-8-12-8----|
|----------------|------------------|----------------|
|----------------|------------------|----------------|
|-10----------10-|------------------|-10----------10-|
|----------------|------------------|----------------|
|----------------|------------------|----------------|

  E  E  E  E  E  E    E E E  E E  E   E  E  E  E  E  E
|-3-10-13-17-13-10-|----3-8-12-8----|-3-10-13-18-13-10-|
|------------------|----------------|------------------|
|------------------|----------------|------------------|
|------------------|-10----------10-|------------------|
|------------------|----------------|------------------|
|------------------|----------------|------------------|

   E E E  E E  E   E  E  E  E  E  E    E E E  E E  E
|----3-8-12-8----|-3-10-13-17-13-10-|----3-8-12-8----|
|----------------|------------------|----------------|
|----------------|------------------|----------------|
|-10----------10-|------------------|-10----------10-|
|----------------|------------------|----------------|
|----------------|------------------|----------------|

  E  E  E  E  E  E    E E E  E E  E   E  E  E  E  E  E
|-3-10-13-18-13-10-|----3-8-12-8----|-3-10-13-17-13-10-|
|------------------|----------------|------------------|
|------------------|----------------|------------------|
|------------------|-10----------10-|------------------|
|------------------|----------------|------------------|
|------------------|----------------|------------------|

   E E E  E E  E   E  E  E  E  E  E    E E E  E E  E
|----3-8-12-8----|-3-10-13-18-13-10-|----3-8-12-8----|
|----------------|------------------|----------------|
|----------------|------------------|----------------|
|-10----------10-|------------------|-10----------10-|
|----------------|------------------|----------------|
|----------------|------------------|----------------|

  E  E  E  E  E  E    E E E  E E  E   E  E  E  E  E  E
|-3-10-13-17-13-10-|----3-8-12-8----|-3-10-13-18-13-10-|
|------------------|----------------|------------------|
|------------------|----------------|------------------|
|------------------|-10----------10-|------------------|
|------------------|----------------|------------------|
|------------------|----------------|------------------|

   E E E  E E  E   E  E  E  E  E  E    E E E  E E  E
|----3-8-12-8----|-3-10-13-17-13-10-|----3-8-12-8----|
|----------------|------------------|----------------|
|----------------|------------------|----------------|
|-10----------10-|------------------|-10----------10-|
|----------------|------------------|----------------|
|----------------|------------------|----------------|

  E  E  E  E  E  E    E E E  E E  E   E  E  E  E  E  E
|-3-10-13-18-13-10-|----3-8-12-8----|-3-10-13-17-13-10-|
|------------------|----------------|------------------|
|------------------|----------------|------------------|
|------------------|-10----------10-|------------------|
|------------------|----------------|------------------|
|------------------|----------------|------------------|

   E E E  E E  E   E  E  E  E  E  E    E E E  E E  E
|----3-8-12-8----|-3-10-13-18-13-10-|----3-8-12-8----|
|----------------|------------------|----------------|
|----------------|------------------|----------------|
|-10----------10-|------------------|-10----------10-|
|----------------|------------------|----------------|
|----------------|------------------|----------------|

  E  E  E  E  E  E    E E E  E E  E   E  E  E  E  E  E
|-3-10-13-17-13-10-|----3-8-12-8----|-3-10-13-18-13-10-|
|------------------|----------------|------------------|
|------------------|----------------|------------------|
|------------------|-10----------10-|------------------|
|------------------|----------------|------------------|
|------------------|----------------|------------------|

   E E E  E E  E   E  E  E  E  E  E    E E E  E E  E
|----3-8-12-8----|-3-10-13-17-13-10-|----3-8-12-8----|
|----------------|------------------|----------------|
|----------------|------------------|----------------|
|-10----------10-|------------------|-10----------10-|
|----------------|------------------|----------------|
|----------------|------------------|----------------|

  E  E  E  E  E  E    E E E  E E  E   E  E  E  E  E  E
|-3-10-13-18-13-10-|----3-8-12-8----|-3-10-13-17-13-10-|
|------------------|----------------|------------------|
|------------------|----------------|------------------|
|------------------|-10----------10-|------------------|
|------------------|----------------|------------------|
|------------------|----------------|------------------|

   E E E  E E  E   E  E  E  E  E  E    Q   E E +E   E
|----3-8-12-8----|-3-10-13-18-13-10-|-----16-8-(8)--8-|
|----------------|------------------|--------------12-|
|----------------|------------------|-22--------------|
|-10----------10-|------------------|-22--------------|
|----------------|------------------|-----------------|
|----------------|------------------|-----------------|

   Q   E E +E   E    Q   E  E  +E   E    Q   E  E  +E   E
|-----11-8-(8)-11-|-18--15-10-(10)-10-|-18--18-18-(18)-18-|
|-----------------|----------------14-|-19----------------|
|-22--------------|-------------------|-------------------|
|-22--------------|-------------------|-------------------|
|-----------------|-------------------|-------------------|
|-----------------|-15----------------|-------------------|

   Q   E  E  +E   E    Q   E E +E   E    Q   E  E  +E   E
|-----16-11-(11)--8-|-11--16-8-(8)-11-|-18--15-10-(10)----|
|----------------12-|-----------------|-------------------|
|-------------------|-----------------|-------------------|
|-22----------------|-15--------------|----------------24-|
|-20----------------|-----------------|-------------------|
|-------------------|-----------------|----------------23-|

   Q   E  E  +E   E    Q   E  E  +E   E    Q   E E +E   E
|-18--10-18-(18)-18-|--------11-(11)--8-|-----11-8-(8)-11-|
|-19----------------|----------------12-|-----------------|
|-------------------|-------------------|-22--------------|
|-------------------|-22--22------------|-22--------------|
|-------------------|-20----------------|-----------------|
|-------------------|-------------------|-----------------|

   Q   E  E  +E   E    Q   E  E  +E   E    Q   E  E  +E   E
|-18--10-10-(10)-18-|-----15-18-(18)-18-|-----11-11-(11)--8-|
|----------------14-|-------------------|----------------12-|
|-------------------|-24----------------|-------------------|
|-------------------|-24----------------|-22----------------|
|-------------------|-------------------|-20----------------|
|-15----------------|-------------------|-------------------|

   Q   E E +E   E    Q  E  E  +E   E    Q   E  E  +E   E
|-11--11-8-(8)-11-|-18----10-(10)-18-|-16--16-16-(16)-16-|
|-----------------|-----3---------15-|-17----------------|
|-----------------|------------------|-------------------|
|-15--------------|------------------|-------------------|
|-----------------|------------------|-------------------|
|-----------------|------------------|-------------------|

   Q   E  E  +E  E    Q   E  E  +E  E    Q   E  E  +E   E
|--------11-(11)-8-|-11--11-16-(16)-8-|-18--10-10-(10)-10-|
|------------------|------------------|-------------------|
|-22---------------|------------------|--------12-(12)----|
|-22--22-15-(15)---|-15---------------|-------------------|
|------------------|------------------|-------------------|
|------------------|------------------|-15----------------|

   Q   E  E  +E   E    Q   E  E  +E  E    Q   E  E  +E  E
|-----18-10-(10)-15-|-----11-16-(16)-8-|-----16-11-(11)-8-|
|-------------------|--------17-(17)---|------------------|
|-24----------------|-22---------------|-22---------------|
|-24----------------|-22---------------|-22---------------|
|-------------------|------------------|------------------|
|-------------------|------------------|------------------|

   Q   E  E  +E   E    Q   E  E  +E   E    Q  E  E  +E   E
|-10--10-15-(15)----|-18--15-15-(15)-10-|-11--8-16-(16)--8-|
|-------------------|-19----------------|---------------12-|
|-------------------|-------------------|------------------|
|----------------24-|-------------------|-15---------------|
|-------------------|-------------------|------------------|
|-11-----11-(11)-23-|-------------------|------------------|

   Q  E  E  +E   E    Q   E  E  +E   E    Q   E  E  +E   E
|-11--8-16-(16)-16-|-18--18-15-(15)-15-|-18--10-10-(10)-10-|
|------------------|-------------------|-19----------------|
|------------------|-------------------|-------------------|
|-15---------------|-------------------|-------------------|
|------------------|-------------------|-------------------|
|------------------|-15-----15-(15)----|-------------------|

   Q  E E +E   E    Q   E  E  +E  E    Q   E  E  +E   E
|-11--8-8-(8)-11-|-16--16-16-(16)-8-|-18--15-15-(15)-18-|
|----------------|-17---------------|----------------15-|
|----------------|------------------|-------------------|
|-15-------------|------------------|-------------------|
|----------------|------------------|-------------------|
|----------------|------------------|-----11-11-(11)----|

   Q   E  E  +E  E    H.         +H      E  E
|-----16-16-(16)-9-|-15-------|-(15)----------|
|------------------|----------|---------------|
|-22---------------|----------|---------13-13-|
|-23---------------|----------|---------------|
|------------------|----------|---------------|
|------------------|----------|---------------|

   H.         +H      E  E    H     E  E
|-15-------|-(15)----------|-17----------|
|----------|---------------|-------------|
|----------|---------------|-------------|
|----------|---------------|-------------|
|----------|---------------|-------------|
|----------|---------15-15-|-------17-17-|

   H     E  E    H     E  E    Q.    E  +Q
|-13----------|-20----17-17-|-15-------------|
|-------------|-------------|----------------|
|-------------|-------------|----------------|
|-------------|-------------|----------------|
|-------------|-------------|----------------|
|-------13-13-|-17----17----|-------15-(15)--|

   E  E E  E E  E   E  E  E  E  E  E    E E E  E E  E
|-------8-12-8----|-3-10-13-17-13-10-|----3-8-12-8----|
|-----------------|------------------|----------------|
|-----------------|------------------|----------------|
|----17--------10-|------------------|-10----------10-|
|-15--------------|------------------|----------------|
|-----------------|------------------|----------------|

  E  E  E  E  E  E    E E E  E E  E   E  E  E  E  E  E
|-3-10-13-18-13-10-|----3-8-12-8----|-3-10-13-17-13-10-|
|------------------|----------------|------------------|
|------------------|----------------|------------------|
|------------------|-10----------10-|------------------|
|------------------|----------------|------------------|
|------------------|----------------|------------------|

   E E E  E E  E   E  E  E  E  E  E    E E E  E E  E
|----3-8-12-8----|-3-10-13-18-13-10-|----3-8-12-8----|
|----------------|------------------|----------------|
|----------------|------------------|----------------|
|-10----------10-|------------------|-10----------10-|
|----------------|------------------|----------------|
|----------------|------------------|----------------|

  E  E  E  E  E  E    E E E  E E  E   E  E  E  E  E  E
|-3-10-13-17-13-10-|----3-8-12-8----|-3-10-13-18-13-10-|
|------------------|----------------|------------------|
|------------------|----------------|------------------|
|------------------|-10----------10-|------------------|
|------------------|----------------|------------------|
|------------------|----------------|------------------|

   E E E  E E  E   E  E  E  E  E  E    E E E  E E  E
|----3-8-12-8----|-3-10-13-17-13-10-|----3-8-12-8----|
|----------------|------------------|----------------|
|----------------|------------------|----------------|
|-10----------10-|------------------|-10----------10-|
|----------------|------------------|----------------|
|----------------|------------------|----------------|

  E  E  E  E  E  E    E E E  E E  E   E  E  E  E  E  E
|-3-10-13-18-13-10-|----3-8-12-8----|-3-10-13-17-13-10-|
|------------------|----------------|------------------|
|------------------|----------------|------------------|
|------------------|-10----------10-|------------------|
|------------------|----------------|------------------|
|------------------|----------------|------------------|

   E E E  E E  E   E  E  E  E  E  E    E E E  E E  E
|----3-8-12-8----|-3-10-13-18-13-10-|----3-8-12-8----|
|----------------|------------------|----------------|
|----------------|------------------|----------------|
|-10----------10-|------------------|-10----------10-|
|----------------|------------------|----------------|
|----------------|------------------|----------------|

  E  E  E  E  E  E    E E E  E E  E   E  E  E  E  E  E
|-3-10-13-17-13-10-|----3-8-12-8----|-3-10-13-18-13-10-|
|------------------|----------------|------------------|
|------------------|----------------|------------------|
|------------------|-10----------10-|------------------|
|------------------|----------------|------------------|
|------------------|----------------|------------------|

   E E E  E E  E   E  E  E  E  E  E    E E E  E E  E
|----3-8-12-8----|-3-10-13-17-13-10-|----3-8-12-8----|
|----------------|------------------|----------------|
|----------------|------------------|----------------|
|-10----------10-|------------------|-10----------10-|
|----------------|------------------|----------------|
|----------------|------------------|----------------|

  E  E  E  E  E  E    H.         +H.
|-3-10-13-18-13-10-|-15-------|-(15)----*|
|------------------|----------|---------*|
|------------------|----------|---------*|
|------------------|----------|---------*|
|------------------|----------|---------*|
|------------------|----------|---------*|