Login or Register to remove this ad. | Advertise Here

Hell March (Command & Conquer: Red Alert) Guitar Tab

Submitted: Apr 12, 2008 by archard (Last updated: Oct 16, 2009)

5
Average: 5 (3 votes)
Download | Listen
Game: Command & Conquer: Red Alert
Composer(s): Frank Klepacki
Style: Fingerstyle, Transcription

AutoScroll: Slow | Medium | Fast
#-#-#-#-#-#-#-#-#-#-#-#-#-#-#-#-#-#-#-#-#-#-#-#-#-#-#-#-#-#-#-#-#-#-#-#-#-#-#-#
# NOTE: This tab is not made by me, but by Frank Klepacki himself as a result #
# of numerous fan requests. So the credit for this song AND this very tab     #
# goes to him alone. If you don't happen to remember how the song goes and/or #
# own neither the game nor the soundtrack (shame on you) you can always       #
# go check the song out on his official website. There is a jukebox at the    #
# bottom of the page with all his soundtracks listenable @ 128 kbps mp3       #
# streams for free. Enjoy.                                                    #
#-#-#-#-#-#-#-#-#-#-#-#-#-#-#-#-#-#-#-#-#-#-#-#-#-#-#-#-#-#-#-#-#-#-#-#-#-#-#-#

“HELL MARCH” - TABS FOR GUITAR
(as written by Frank Klepacki, heard in the game “Command & Conquer: Red Alert”)
Courtesy of www.frankklepacki.com

Whole song in triplet feel, low E string is tuned down to D. 

 

Main riff part 1

E-------------------------------------------------------------------------------
B-------------------------------------------------------------------------------
G-------------------------------------------------------------------------------
D-------------------------------------------------------------------------------
A----0-----0--1--0--0--4--0--0--------------------------------------------------
D----0-----0--1--0--0--4--0--0--------------------------------------------------

Beat 1        2        3        4        5        6        7        8

 

Main riff part 2

E-------------------------------------------------------------------------------
B-------------------------------------------------------------------------------
G-------------------------------------------------------------------------------
D-------------------------------------------------------------------------------
A----0-----0--1--0--0--4--0--0-----------------------------3--------------------
D----0-----0--1--0--0--4--0--0--------------------3--4--5-----5--4--3-----------

Beat 1        2        3        4        5        6        7        8

 

Muted part

E-------------------------------------------------
B-------------------------------------------------
G-------------------------------------------------
D-------------------------------------------------
A----0--0--0--0--0--0--0--0--0--0--0--0-----------
D----0--0--0--0--0--0--0--0--0--0--0--0-----------

Accent        <                       <
Beat 1        2        3        4

 

Main Melody (Octaves)

E-------------------------------------------------------------------------------
B-------------------------------------------------------------------------------
G-------------7--8--8--8--5—-5--5--7--7--7--12-12-12-11-11-11-14-14-14-14-14----
D-------------------------------------------------------------------------------
A-------------5--6--6--6--3—-3--3--5--5--5--10-10-10-9--9--9--12-12-12-12-12----
D----0--------------------------------------------------------------------------

Beat 1        2        3        4        5        6        7        8

 
 
Bridge part 1 (chords followed by octaves)

E-------------------------------------------------------------------------------
B-------------------------------------------------------------------------------
G----------------------9--9--9--7--7-----------------10-10-10-10-10-------------
D-------------------------------------------------------------------------------
A----0--2-----2--------7--7--7--5--5--0--0--3--3-----8--8--8--8--8--------------
D----0--2-----2-----0-----------------0--0--3--3--0-----------------0-----------
 
Beat 1        2        3        4        5        6        7        8

 

Bridge part 2

E-------------------------------------------------------------------------------
B-------------------------------------------------------------------------------
G----------------------9--9--9--7--7--------------------------------------------
D-------------------------------------------------------------------------------
A----0--2-----2--------7--7--7--5--5--0--3-----3-----3--3--6-----6-----6--6-----
D----0--2-----2-----0-----------------0--3-----3-----3--3--6-----6-----6--6-----

Beat 1        2        3        4        5        6        7        8

2 comments on Hell March

This is as legit as it gets,

5

This is as legit as it gets, directly from the man himself.

HAARD

HAARD