Login or Register to remove this ad. | Advertise Here

Hell March 2 (Command & Conquer: Red Alert 2) Guitar Tab

Submitted: Apr 16, 2008 by archard (Last updated: Oct 16, 2009)

5
Average: 5 (1 vote)
Download | Listen
Game: Command & Conquer: Red Alert 2
Composer(s): Frank Klepacki
Style: Fingerstyle, Transcription

AutoScroll: Slow | Medium | Fast
#-#-#-#-#-#-#-#-#-#-#-#-#-#-#-#-#-#-#-#-#-#-#-#-#-#-#-#-#-#-#-#-#-#-#-#-#-#-#-#
# NOTE: This tab is not made by me, but by Frank Klepacki himself as a result #
# of numerous fan requests. So the credit for this song AND this very tab     #
# goes to him alone. If you don't happen to remember how the song goes and    #
# own neither the game nor the soundtrack, you can always go check the song   #
# out on his official website. There is a jukebox at the bottom of the page   #
# with all his soundtracks listenable in 128 kbps mp3 streams for free.       #
#-#-#-#-#-#-#-#-#-#-#-#-#-#-#-#-#-#-#-#-#-#-#-#-#-#-#-#-#-#-#-#-#-#-#-#-#-#-#-#

“HM2” - TABS FOR GUITAR
(as written by Frank Klepacki, heard in the game “Command & Conquer: Red Alert 2”)
Courtesy of www.frankklepacki.com

Whole song in straight 4/4 feel, low E string is tuned down to D. 

 

Intro riff

E----------------------------------------------------
B----------------------------------------------------
G----------------------------------------------------
D----------------------------------------------------
A----0-----2--0-----2--2--2--2--2--0-----2--2--2--2--
D----0—-------0--------------------0-----------------

Harmonic – H        H  H  H  H  H        H  H  H  H 
Beat 1           2           3           4       

 

Main riff part 1

E----------------------------------------------------
B----------------------------------------------------
G----------------------------------------------------
D----------------------------------------------------
A----0-----0--0--1----0--4------0--0-----------------
D----0-----0--0--1----0—-4------0--0-----------------

Mute -     M  M       M         M
Scrape –                                 S  S  S  S 
Beat 1           2           3           4       

 

Main riff part 2

E----------------------------------------------------
B----------------------------------------------------
G----------------------------------------------------
D----------------------------------------------------
A----0-----0--0--1----0--4------------3--------------
D----0-----0--0--1----0—-4------4--5-----5--4--3-----

Mute -     M  M       M         M  M     M  M 
Beat 1           2           3           4           

 

Main Melody (Octaves)

E----------------------------------------------------
B----------------------------------------------------
G----------------7--8--8--8—-5--5—-5--5--7--7--7--7--
D----------------------------------------------------
A----------------5--6--6--6—-3--3—-3--3—-5--5--5--5--
D----0-----------------------------------------------

Beat 1           2           3           4           


E----------------------------------------------------
B----------------------------------------------------
G---------------12-12-12-12-11-11-11-11-15-15-15-15--
D----------------------------------------------------
A---------------10-10-10-10-9--9--9—-9--13-13-13-13--
D----0-----------------------------------------------

Beat 1           2           3           4         



Muted Rhythm Part

E----------------------------------------------------
B----------------------------------------------------
G----------------------------------------------------
D----------------------------------------------------
A----0-----0--0-----0--0--0--0--0--1-----0--1--------
D----0-----0--0-----0--0—-0--0--0--1-----0--1--------

Mute -     M        M  M  M  M  M        M  M        
Beat 1           2           3           4           


E----------------------------------------------------
B----------------------------------------------------
G----------------------------------------------------
D----------------------------------------------------
A----0-----0--0-----0--0--0--0--0-----------3--------
D----0-----0--0-----0--0--0--0--0--3--4--5-----------

Mute       M        M  M  M  M  M  M  M  M
Beat 1           2           3           4           



Bridge part 1

E----------------------------------------------------
B----------------------------------------------------
G----------------------------------------------------
D----------------------------9--9--9--9--9--9--9--9--
A----0--2--2--2--2--2--2—-2--7--7--7--7--7--7--7--7--
D----0--2--2--2--2--2--2--2--------------------------

Beat 1           2           3           4           

 
E----------------------------------------------------
B----------------------------------------------------
G----------------------------------------------------
D----------------------------10-10-10-10-10-10-10-10-
A----0--3--3--3--3--3--3--3--8--8--8--8--8--8--8--8--
D----0--3--3--3--3--3--3--3--------------------------

Beat 5           6           7           8



Bridge part 2

E----------------------------------------------------
B----------------------------------------------------
G----------------------------------------------------
D----------------------------9--9--9--9--9--9--9--9--
A----0--2--2--2--2--2--2—-2--7--7--7--7--7--7--7--7--
D----0--2--2--2--2--2--2--2--------------------------

Beat 1           2           3           4           

 
E----------------------------------------------------
B----------------------------------------------------
G----------------------------------------------------
D----------------------------------------------------
A----0--3--3--3--3--3--3--3--6--6--6--6--6--6--6--6--
D----0--3--3--3--3--3--3--3--6--6--6--6--6--6--6—-6--

Beat 5           6           7           8



Breakdown riff

E----------------------------------------------------
B----------------------------------------------------
G----------------------------------------------------
D----7--------------------------------------------5--
A----5-----------0--0---—-0-----0-----0--0-----0--3--
D----------------0--0-----0-----0-----0--0-----0-----

Mute -           M  M     M     M     M  M     M     
Beat 1           2           3           4           


E----------------------------------------------------
B----------------------------------------------------
G----------------------------------------------------
D----7--------------------------------------------5--
A----5-----------0--0---—-0-----0-----0--0-----0--3--
D----------------0--0-----0-----0-----0--0-----0-----

Mute             M  M     M     M     M  M     M       
Beat 5           6           7           8