Login or Register to remove this ad. | Advertise Here

Moonsong (Cave Story) Guitar Tab

Submitted: Nov 24, 2007 by archard (Last updated: Nov 25, 2007)

4
Average: 4 (4 votes)
Download | Listen
Game: Cave Story
Composer(s): Daisuke Amaya
Style: Transcription

AutoScroll: Slow | Medium | Fast
Moonsong
Cave Story
Composed by Daisuke Amaya
Tabbed by Richard Schaefer (richard@gametabs.net)
11/24/07


Track 1
      Q     E   E  E   Q     E      W                 
E||-----------------------------|--------------------|
B||--------11--13-----15----11--|---L----------------|
G||--12-------------------------|--------------------|
D||-----------------------------|--------------------|
A||-----------------------------|--------------------|
E||-----------------------------|--------------------|


   Q     E   E  E   Q     E      W                    Q.      Q.      Q     
-----------------------------|--------------------|------------------------|
--------11--13-----15----11--|---L----------------|--11------13------15----|
--12-------------------------|--------------------|------------------------|
-----------------------------|--------------------|------------------------|
-----------------------------|--------------------|------------------------|
-----------------------------|--------------------|------------------------|


   E   Q.      Q     Q        Q.      Q.      Q        E   Q.      H           
------11------------------|--13------11------------|-------------------------||
---L----------15----13----|------------------15----|---L--13------11---------||
--------------------------|------------------------|------------------------*||
--------------------------|------------------------|------------------------*||
--------------------------|------------------------|-------------------------||
--------------------------|------------------------|-------------------------||


   Q.      E  Q     Q        E   E  Q     E   Q.         Q.      E  Q     Q     
-------------------------|---------------------------|-------------------------|
--11------13-------11----|---L--13-------11----------|----------11-------------|
-------------------------|-------------------10------|--12---------------12----|
-------------------------|---------------------------|-------------------------|
-------------------------|---------------------------|-------------------------|
-------------------------|---------------------------|-------------------------|


   E   E  Q     Q     Q        Q.      E  Q     Q     
---------------------------|-------------------------|
------11-------------11----|--11------13-------11----|
---L-----------12----------|-------------------------|
---------------------------|-------------------------|
---------------------------|-------------------------|
---------------------------|-------------------------|


   E   E  Q     E   Q.         Q.      E  Q     Q     
---------------------------|-------------------------|
---L--13-------11----------|----------11-------------|
-------------------10------|--12---------------12----|
---------------------------|-------------------------|
---------------------------|-------------------------|
---------------------------|-------------------------|


   E   E  Q     S  S  E   E   E      Q     Q    Q     Q     
------------------10-11--11--13--|-------------------------|
------11-------------------------|--11----13---------11----|
---L-----------12----------------|-------------------------|
---------------------------------|-------------------------|
---------------------------------|-------------------------|
---------------------------------|-------------------------|


   E   E  Q     E   E  E   E      E   E   E   E   Q     E   E   
------------------------------|--------------------------------|
---L--13-------11--13-----13--|--15--13--15--16--------15--13--|
------------------------------|------------------12------------|
------------------------------|--------------------------------|
------------------------------|--------------------------------|
------------------------------|--------------------------------|


   E   E   Q     Q     Q        Q.      E  Q     Q     
----------------------------|-------------------------|
--15--16--------11----13----|--11------13-------11----|
----------12----------------|-------------------------|
----------------------------|-------------------------|
----------------------------|-------------------------|
----------------------------|-------------------------|


   E   E  Q     E   Q.         E.   E.   E   E   Q     E   
---------------------------|----------------13--------13--|
---L--13-------11----------|--16---15---16------16--------|
-------------------10------|------------------------------|
---------------------------|------------------------------|
---------------------------|------------------------------|
---------------------------|------------------------------|


   E   E   E   E   E   E   E   E     
--18--18--23--23--22--22--20--18---||
-----------------------------------||
----------------------------------*||
----------------------------------*||
-----------------------------------||
-----------------------------------||

3 comments on Moonsong

Awesome! I love Cave Story.

Awesome! I love Cave Story.

I'm glad to see some cave

I'm glad to see some cave story tabs on the site. Great game.

Good to see a tab up from

Good to see a tab up from this great game. If possible you shhould try to tab the theme song. I'd do it myself except I suck at tabbing haha.