Login or Register to remove this ad. | Advertise Here

Susano's Training (Okami) Guitar Tab

Submitted: Feb 12, 2012 by Eduardo

5
Average: 5 (3 votes)
Download | Listen
Game: Okami
Composer(s): Masami Ueda, Hiroshi Yamaguchi, Rei Kondo, Akari Groves, JUN
Style: Arrangement, Fingerstyle

AutoScroll: Slow | Medium | Fast
Name of song : Susano's Training
Name of game : Okami
Composer of song: Masami Ueda

Name of tabber : Eduardo 
Contact:  egliari@gmail.com
Date tab was made : 12/02/2012



e||-----------0------------|-------------------|
B||--------------------3---|---1------0--------|
G||*--2------------2-------|-------0--------0--|
D||*------2----------------|-------------0-----|
A||---0-------0--------0---|-------------------|
E||------------------------|---3------3-----3--|


e------------------------|--------------------|
B------------------------|--------------------|
G---2--------------------|------------------0-|
D------------------x-----|--------------------|
A---0---0-0---0----x-----|---0---0-0--2-2-----|
E------------------x-----|----------------3-3-|


e----------0-------------|---1------0---------|
B------------------3-----|-----------------1--|
G---2----------2---------|-------0------2-----|
D-------2----------------|--------------------|
A---0------0-------0-----|--------------------|
E------------------------|---3------3------3--|


e------------------------|-----------------0----|
B-----------3------------|-------------------3--|
G---2--------------------|----------------------|
D-------3----------------|-------x--------------|
A------------------------|-------x--------------|
E---1-------1---1-1------|---0---x---0--0-------|


e---0-------3-----------|---2-------------------|
B-----------------------|-----------3-----------|
G-------2--------0------|-------2---------------|
D---2-------2-----------|---0-------0---4-------|
A-----------------------|-----------------------|
E-----------------------|-----------------------|


e-----------------------|---------0-----------0-----|
B---0-------------0-----|------3-----------------3--|
G--------------------2--|---4-----------------------|
D-----------------------|---2--2--0--0--------------|
A---2----2----2---2-----|---------------3--3--2--2--|
E-----------------------|---------------------------|


e---0-------3---------|---2-------5--------|
B---------------------|--------------------|
G---------------------|--------------------|
D---2---2---2----2----|---0---0---0----0---|
A---------------------|--------------------|
E---------------------|--------------------|



e---7p0---------------|-------------------------||
B--------5------------|-------------------------||
G---------------------|------------------------*||
D---------------------|------------------------*||
A---7----7---7---7----|--7--7--5--5--3--3--2----||
E---------------------|----------------------3--||



e---^-0---------------|
B---|-1---------------|
G---|-2---------------|
D---|-2---------------|
A---|-0---------------|
E---------------------|

1 comment on Susano's Training

Sounds just like it! Nice

5

Sounds just like it! Nice job! It's about time someone put some more Okami tabs on here and you did an awesome job!