Login or Register to remove this ad. | Advertise Here

Hyrule Field (Legend of Zelda: Twilight Princess) Guitar Tab

Submitted: Sep 30, 2007 by archard (Last updated: Sep 09, 2013)

4.617645
Average: 4.6 (34 votes)
Download | Listen
Game: Legend of Zelda: Twilight Princess
Composer(s): Koji Kondo, Asuka Ohta, Toru Minegishi
Style: Transcription
Series: Legend of Zelda

AutoScroll: Slow | Medium | Fast
Hyrule Field Main Theme
The Legend of Zelda: Twilight Princess
Composed by Koji Kondo
Tabbed by Richard Schaefer (richard@gametabs.net)
12/21/06

e-----------------------------------------------------------------------
B-----------------------------------------------------------------------
G----------------------------------------2-----4-------5-4---2-----0h2--
D----5-4-0-----------------5-4-0-2---4h5-------------3-----5-----------4
A--2-------4---2p0-4-----2----------------------------------------------
E-----------------------------------------------------------------------

e----------------------------------------------------2-0----------------
B--------------------------------------------0h2h3---------------3-2----
G----------------------------------------2---------------2---0----------
D----5-4-0-----------------5-4-0-2---4h5-----------------------------4--
A--2-------4---2p0-4-----2----------------------------------------------
E-----------------------------------------------------------------------

e---------------------------------------------
B--------------0-0h2h3-----------2-----2-2h4h5
G--0-0h2h4-----------------2-2h4--------------
D---------------------------------------------
A---------------------------------------------
E---------------------------------------------

e------------------------------------------------------------------
B-------------------------------------------------------2-2---0h2h3
G------------2--------------------------------------2--------------
D--0---2--4--------2-0--------------------0---2--4-----------------
A----------------------4---2p1p0-----------------------------------
E------------------------------------------------------------------

Repeat

39 comments on Hyrule Field

The TAB dont go with the

The TAB dont go with the song, or do they?

it saws you can download the

it saws you can download the MP3 under the rating area.

The tab goes with the song,

The tab goes with the song, and it's one of the only ones i've seen that does for Hyrule field.

I dont get it, I dont

I dont get it, I dont understand!!!!

what do u not get?

what do u not get?

i dont understand that thing

i dont understand that thing of 2p1p0 neighter the pentagram!

I have no idea what

I have no idea what "neighter the pentagram" means but whenever you see the letter "p" in a tab it means "pull-off". So in this case you wanna play all three notes only plucking the string one time. You don't have to, but I think it sounds better that way.

I should really consider putting the "How to Read/Write Tabs" page back up.

yes you really should. I

yes you really should. I have about 20 friends who have no clue how to read a tab.

I think it sounds pretty

I think it sounds pretty much like the real thing. Good Job!

it does sound like the real

it does sound like the real thing!!! btw i win the shirt!!!

It didn't sound right to me,

It didn't sound right to me, then again I haven't tuned my guitar in three months. :x

WTF? Do you not have a

WTF? Do you not have a tuner, man?

Man what a great tab, it's

Man what a great tab, it's absolute perfection! :D

sounds realy great man, i

sounds realy great man, i dunno what these people are talking about, yes tuning your guitars would probably help alot. have you got the tabs to the opening theme btw?

what h and p mean please for

what h and p mean please
for exemple 0h2h3

Very nice.. I like it alot

Very nice.. I like it alot and it's really accurate.. but listening to the actual song, you seem to be missing a section between the ending and repeating to the beginning.

H is hammer on and P is pull

H is hammer on and P is pull off

It dont sound right dinky

It dont sound right dinky

nice dude i like it :D

nice dude i like it :D

I only played a little bit,

I only played a little bit, but judging from the other comments, I'm going to assume it's correct.
Nice job btw.

what do the hammer and

what do the hammer and pull-off mean?
(like what do you do when you do them
like in the "slide" you slide from ex. 10 to 20)

It's when you slam your

It's when you slam your hammer on the neck and then pull it off.

I have 15 friends

I have 15 friends

I just realized that the

I just realized that the Gerudo desert theme is a slowed down version of this song; heh.

I see no problems, nice job!

I see no problems, nice job!

The tab is perfection but I

5

The tab is perfection but I cannot get this part:

e---------------------------------------------
B--------------0-0h2h3-----------2-----2-2h4h5
G--0-0h2h4-----------------2-2h4--------------
D---------------------------------------------
A---------------------------------------------
E---------------------------------------------

to sound right. I have tried playing using both hammer-ons and pull-offs and tried without using them but neither sounds right. Any tips on playing this section?

I a Zelda veteran and no doubt this is one of my favourite pieces from the entire series. Even though I know how it is supposed to sound, I listened to the mp3 file to double check and it still does not sound right.

Hmm.... The part

Hmm.... The part

e---------------------------------------------
B--------------0-0h2h3-----------2-----2-2h4h5
G--0-0h2h4-----------------2-2h4--------------
D---------------------------------------------
A---------------------------------------------
E---------------------------------------------

Is a bit incorrect in my opinion.. At the end where it is 2 2h4h5, I think that sounds off.. Maybe 2 2h3h5... not shure.

Has anyone found a good tab

Has anyone found a good tab for this game's battle music?

Wow this comment board is

5

Wow this comment board is rife with fail and faggotry. I'm digging the tab, Archard, good job.

You Rock!

5

nice tabbing yet again archard

if u could find out the rest of the song it would be worth 6 stars

yea alot of people apparently

5

yea alot of people apparently cant play guitar soundds right to me

Yeah good tab

5

Yeah good tab Archard. Try finding some tabs for some boss music (Especially Ganondorf's)

Love the tab

5

Love it, keep up the good work Archard =)

For beginners

2-----4-------5-4---2-----0h2--
------------3-----5-----------4

At the part where it goes

4---2--
--5----

you could also do 4-0-2, just to make it a lil easier. sounds exactly the same.

it sound great to me i know

it sound great to me
i know how to play the hammer-on part but it doesn't sound good but that is just me

Missing Part if Playing Game Version

5

For the official MP3 (or at least I think it is, I think the one listed to listen to is the Super Smash Bros. Brawl version) There is one part this tab doesnt cover. The other MP3 that im talking about can be found here first of all: http://www.youtube.com/watch?v=NZmBHQTn8V8 The part I'm talking about that is missing starts at about :40 or so. I tabbed it for any who want it.

e -----------------------------------------------------------------------------------
B -----------------------------------------------------------------------------------
G -------------1-2-------------2-4-------------1-2-4-1h2p1----------------------
D -4-2-0-2-4------6-4---4-6------4-2-0-2-4-------------------------------------
A -----------------------7-----------------------------------------------------------
E -----------------------------------------------------------------------------------

e -----------------------------------------------------------------------------------
B -----------------------------------------------------------------------------------
G -------------1-2----2-1------------------1-2----2-1-----------------------------
D -4-2-0-2-4-------------2----4-2-0-2-4--------------2--------------------------
A -----------------------------------------------------------------------------------
E -----------------------------------------------------------------------------------

e -----------------------------------------------------------------------------------
B -----------------------------------------------------------------------------------
G ------------4-5----5-4-----------------------------------------------------------
D -7-5---5-7-------------5-7----5h7-4--------------------------------------------
A ------8----------------------------------------------------------------------------
E -----------------------------------------------------------------------------------

Nice (thumbs up)

Nice (thumbs up)

The tab does go with the

The tab does go with the song. Even though you made that comment in 2007 :-\

This is a nice tab but its hard for me to create the flow

what

2

hunh what the hell?