Login or Register to remove this ad. | Advertise Here

Forest of Hope (Pikmin) Guitar Tab

Submitted: Oct 28, 2008 by hslesperance (Last updated: Mar 30, 2014)

0
Download | Listen
Game: Pikmin
Composer(s): Strawberry Flower
Style: Transcription, Trill

AutoScroll: Slow | Medium | Fast
Forest of Hope
Pikmin
Composed by Hajime Wakai
Tabbed by hslesperance
10/26/08

Standard Tuning

e---13-12----------12-------------13-12----------12------------
B---------15----------15-13-------------15----------15-13------
G------------14-------------12-------------14-------------12---
D--------------------------------------------------------------
A--------------------------------------------------------------
E--------------------------------------------------------------

e------13-12-------------12---------------12-------15----13----
B------------15-------15----15-13-----13-----------------------
G---14----------14----------------12------------12-------------
D--------------------------------------------------------------
A--------------------------------------------------------------
E--------------------------------------------------------------

e---------------13-12----------12-------------13-12------------
B---13----------------15----------15-13-------------15---------
G---------12-------------14-------------12-------------14------
D--------------------------------------------------------------
A--------------------------------------------------------------
E--------------------------------------------------------------

e---12-----------------13-12-------------12---------------12---
B------15-13-----------------15-------15----15-13-----13-------
G------------12-----14----------14----------------12-----------
A--------------------------------------------------------------
E--------------------------------------------------------------

e------15----13------------------15----13----------------------
B------------------13------------------------13----------------
G---12-------------------12------------------------12----------
D----------------------------15------------------------15------
A--------------------------------------------------------------
E--------------------------------------------------------------

e------------------------------------------12------------------
B------------13-------------15----------12-------15--13--------
G---------12----------12-14-------12-14-----------------15-14--
D---14-15----------15------------------------------------------
A--------------------------------------------------------------
E--------------------------------------------------------------

e---------------------12-------------15----------15-20--18-----
B------------------12----------13-15-------16-18-----------20--
G---12-------12-14----------15---------------------------------
D------15------------------------------------------------------
A--------------------------------------------------------------
E--------------------------------------------------------------

Sould be frets 23 and 25 on the trill,instead of 11 and 13, but 
most guitars don't go that high. This is transposed down an octave.

          tr                              tr
e-------11--(13)-------15-20--18---------11--(13)-------15-20--
B---18-----------16-18-----------20--18-----------16-18--------
G--------------------------------------------------------------
D--------------------------------------------------------------
A--------------------------------------------------------------
E--------------------------------------------------------------
                 tr
e---18---------11--(13)----------12---------------12-----------
B------20--18-----------15-13-15-------12----------------12----
G--------------------------------------------12----------------
D--------------------------------------------------------------
A--------------------------------------------------------------
E--------------------------------------------------------------

e---------------------------------------------12---------------
B---------13----------------13----------------------12---------
G---12----------------------------------12----------------12---
D---------12---15-----12----------15---------------------------
A--------------------------------------------------------------
E--------------------------------------------------------------

e---12---------------------------------------------------------
B---------12----------13----------------13---------------------
G---------------12----------------------------------12---------
D---------------------12----15----12----------15---------------
A--------------------------------------------------------------
E--------------------------------------------------------------

tr - trill (rapid hammer-ons and pull-offs)

2 comments on Forest of Hope

i don't remember this one.

i don't remember this one. what stage is it in?

It's on Distant Planet, from

It's on Distant Planet, from Pikmin.