Login or Register to remove this ad. | Advertise Here

Teaser Trailer (Mega Man 9) Guitar Tab

Submitted: Jul 10, 2008 by Juja (Last updated: Aug 29, 2009)

0
Download | Listen
Game: Mega Man 9
Composer(s): Ippo Yamada, Yu Shimoda, Ryo Kawakami, Hiroki Isogai
Style: Transcription
Series: Mega Man

AutoScroll: Slow | Medium | Fast
Game: Mega Man 9
Song: short gameplay trailer
Composed by: Some guy
Tabbed by: Not So Great Juja (Paul Horses)

Key:
~ = vibrato
p = pull-off
h = hammer-on
/ = slide
pm = palm-mute
tr = tremolo picking

Any questions or comments -
please, E-mail me at: TheDeviLisDavidHerbert@gmail.com


This is the first stage you see.


e|-/12--10-----------------------------------|
B|----------13--12~--13--12--10--------------|
G|-------------------------------12--12/14~--|
D|-------------------------------------------|
A|-------------------------------------------|
E|-------------------------------------------|



e|-/12--10-------------------10-----/12~--|
B|----------13--12~--12--13------12-------|
G|----------------------------------------|
D|----------------------------------------|
A|----------------------------------------|
E|----------------------------------------|


Here's the other stage



e|-------------------11----13-11-10-11-10-------|
B|----11-13-11-11h13----13----------------11-13-|
G|-13-------------------------------------------|
D|----------------------------------------------|
A|----------------------------------------------|
E|----------------------------------------------|



e|---------------------------------------|
B|-11-13-15-13-15-11-11------------------|
G|----------------------13~-----12-13-15-|
D|---------------------------------------|
A|---------------------------------------|
E|---------------------------------------|



e|----------------------------------15~--|
B|---------------------------------------|
G|-12-13-15-13-15-13-12-------12-13------|
D|----------------------15~--------------|
A|---------------------------------------|
E|---------------------------------------|

That last note's just a guess.
It actually fades out before it gets that far.

2 comments on Teaser Trailer

Ah, that's not the new

Ah, that's not the new trailer, dude. That was the 10 second teaser. Though, if nobody else wants to, I could tab out the whole song that's in the new trailer.

I'll just call it the Teaser

I'll just call it the Teaser for right now since there is a new trailer out.