Login or Register to remove this ad. | Advertise Here

Overture (Dragon Ball Z: Budokai Tenkaichi 3) Guitar Tab

Submitted: Jan 28, 2009 by hslesperance

0
Download | Listen
Game: Dragon Ball Z: Budokai Tenkaichi 3
Composer(s): Takanori Arima
Style: Transcription
Series: Dragon Ball

AutoScroll: Slow | Medium | Fast
DragonBall Z: Budokai Tenkaichi 3
Overture
Composed by Kenji Yamamoto
Tabbed by hslesperance
1/28/09

e----------------------3----3p1-------------------------------
B----------4/5----3------------------5--3---------------------
G---2/5------------------------------------4------------------
D-------------------------------------------------------------
A-------------------------------------------------------------
E-------------------------------------------------------------

e----------------------3----3/5------3------------------3/8---
B----------4/5----3---------------------5--3------------------
G---2/5-------------------------------------------------------
D-------------------------------------------------------------
A-------------------------------------------------------------
E-------------------------------------------------------------

e---10--------8---L\--------12--------12b13-12-10-------15----
B---------------------5/12------------------------13----------
G-------------------------------------------------------------
D-------------------------------------------------------------
A-------------------------------------------------------------
E-------------------------------------------------------------

e---15b17r--14----12--14--14/15---------------L\--7/8----10/12
B-------------------------------------------------------------
G-------------------------------------------------------------
D-------------------------------------------------------------
A-------------------------------------------------------------
E-------------------------------------------------------------

e---10----15----15p13--------12----------------------------8--
B--------------------------------15--12----------------/8-----
G-------------------------------------------------------------
D-------------------------------------------------------------
A-------------------------------------------------------------
E-------------------------------------------------------------

e---10/12----10----15----16b17--------15--12------------------
B---------------------------------------------15--------------
G-------------------------------------------------------------
D-------------------------------------------------------------
A-------------------------------------------------------------
E-------------------------------------------------------------

e-------10--------8-------L\-------12--------12b13-12-10------
B---/8------------------------/10------------------------13---
G-------------------------------------------------------------
D-------------------------------------------------------------
A-------------------------------------------------------------
E-------------------------------------------------------------

e---15------15b17r--14------12--14--14/15---------------------
B-------------------------------------------------------------
G-------------------------------------------------------------
D-------------------------------------------------------------
A-------------------------------------------------------------
E-------------------------------------------------------------

e---15/17--15-17--15-17----17--19--20-------------------------
B--------------------------------------20--------18p17--------
G--------------------------------------------------------17---
D-------------------------------------------------------------
A-------------------------------------------------------------
E-------------------------------------------------------------

e---15/17--15-17--15-17----17--19--20--20/22-22-22-22-22-22---
B-------------------------------------------------------------
G-------------------------------------------------------------
D-------------------------------------------------------------
A-------------------------------------------------------------
E-------------------------------------------------------------

e---22~----20/22--20--22--------------------------15----15/17-
B-------------------------20----------------15/17----17-------
G-------------------------------------------------------------
D-------------------------------------------------------------
A-------------------------------------------------------------
E-------------------------------------------------------------

e---12------------12------------12------------12/14---12------
B--------15------------15------------15-----------------------
G-------------14------------14------------14--------------14--
D-------------------------------------------------------------
A-------------------------------------------------------------
E-------------------------------------------------------------

e---12------------12------------12------------12/14---12------
B--------15------------15------------15-----------------------
G-------------14------------14------------14--------------14--
D-------------------------------------------------------------
A-------------------------------------------------------------
E-------------------------------------------------------------

e---12------------12------------12------------12/14---12------
B--------15------------15------------15-----------------------
G-------------14------------14------------14--------------14--
D-------------------------------------------------------------
A-------------------------------------------------------------
E-------------------------------------------------------------

e---15--14------------15--14------------15--14----------------
B-----------15----------------15----------------15------------
G---------------14----------------14----------------14--------
D-------------------------------------------------------------
A-------------------------------------------------------------
E-------------------------------------------------------------

e---12/14---12------12------------12------------12------------
B------------------------15------------15------------15-------
G---------------14------------14------------14------------14--
D-------------------------------------------------------------
A-------------------------------------------------------------
E-------------------------------------------------------------

e---12------------17------------------------------------------
B--------15---------------------------------------------------
G-------------14----------------------------------------------
D-------------------------------------------------------------
A-------------------------------------------------------------
E-------------------------------------------------------------

/ - slide up
p - pull off
L - tied note
\ - slide down