Login or Register to remove this ad. | Advertise Here

Wild Pokemon Fainted (Pokémon Diamond & Pearl) Guitar Tab

Submitted: Oct 08, 2008 by yoshistrings

4.833335
Average: 4.8 (6 votes)
Download | Listen
Game: Pokémon Diamond & Pearl
Composer(s): Junichi Masuda, Hitomi Sato
Style: Transcription
Series: Pokemon

AutoScroll: Slow | Medium | Fast
pokemon diamond and pearl-Wild pokemon defeated
tabbed by: yoshistrings
  
intro
S S S  S  Q   +Q    +S  S E
|-----------------------------|
|-5-7-9-10-12--(12)--(12)-----|
|-----------------------------|
|-----------------------------|
|-----------------------------|
|-----------------------------|


main
  S S S S S S S S S S S S S S E   S S S S E E S S S S S S E
|-7---5---4---5---7---7---7-----|-9---9---9---7---7---7-------|
|-------------------------------|-----------------------------|
|-------------------------------|-----------------------------|
|-------------------------------|-----------------------------|
|-------------------------------|-----------------------------|
|-------------------------------|-----------------------------|


  S S S S S S S S S S S S S S E   S S S S S S E S S E Q
|-7---5---4---5---7---7---7-----|-9---9---9-----7--------|
|-------------------------------|------------------------|
|-------------------------------|------------------------|
|-------------------------------|------------------------|
|-------------------------------|------------------------|
|-------------------------------|------------------------|


  S S S S S S S S S S S S S S E    S S  S S  E E S S S S S S E
|-8---6---5---6---8---8---8-----|-10---10---10---8---8---8-----|
|-------------------------------|------------------------------|
|-------------------------------|------------------------------|
|-------------------------------|------------------------------|
|-------------------------------|------------------------------|
|-------------------------------|------------------------------|


  S S S S S S S S S S S S S S E    S S  S S  S S E S S E Q
|-8---6---5---6---8---8---8-----|-10---10---10-----8--------|
|-------------------------------|---------------------------|
|-------------------------------|---------------------------|
|-------------------------------|---------------------------|
|-------------------------------|---------------------------|
|-------------------------------|---------------------------|


repeat


Duration Legend
---------------
W - whole; H - half; Q - quarter; E - 8th; S - 16th; T - 32nd; X - 64th; a - acciaccatura
+ - note tied to previous; . - note dotted; .. - note double dotted
Uncapitalized letters represent notes that are staccato (1/2 duration)
Irregular groupings are notated above the duration line
Duration letters will always appear directly above the note/fret number it represents the
duration for.  Duration letters with no fret number below them represent rests.  Multi-
bar rests are notated in the form Wxn, where n is the number of bars to rest for.  Low
melody durations appear below the staff

Tablature Legend
----------------
 h   - hammer-on
 p   - pull-off
 b   - bend
 pb  - pre-bend
 r   - bend release (if no number after the r, then release immediately)
 /\  - slide into or out of (from/to "nowhere")
 s   - legato slide
 S   - shift slide
  - natural harmonic
[n]  - artificial harmonic
n(n) - tapped harmonic
 ~   - vibrato
 tr  - trill
 T   - tap
 TP  - trem. picking
 PM  - palm muting
\n/  - tremolo bar dip; n = amount to dip
 \n  - tremolo bar down
 n/  - tremolo bar up
/n\  - tremolo bar inverted dip
 =   - hold bend; also acts as connecting device for hammers/pulls
 <>  - volume swell (louder/softer)
 x   - on rhythm slash represents muted slash
 o   - on rhythm slash represents single note slash

Misc Legend
-----------
 |  - bar
||  - double bar
||o - repeat start
o|| - repeat end
*|  - double bar (ending)
 :  - bar (freetime)
 $  - Segno
 &  - Coda
Tempo markers -  = BPM(8/16=s8/s16), where s8 = swing 8ths, s16 = swing 16ths


***************************************************************************************
* Generated using Power Tab Editor by Brad Larsen - http://powertab.guitarnetwork.org *
***************************************************************************************

4 comments on Wild Pokemon Fainted

Song

4

Pretty epic - not something id play though

I love this.

5

HAHAHAHA I never thought someone would do this but this is pretty awesome.

Pretty cool

I like it :P

Awesome!

5

Really great job on the tab! I think it's awesome.:D