Login or Register to remove this ad. | Advertise Here

Cursed Clock Tower (Castlevania: Dawn of Sorrow) Guitar Tab

Submitted: Aug 01, 2006 by archard (Last updated: Jun 22, 2008)

4.166665
Average: 4.2 (6 votes)
Download | Listen
Game: Castlevania: Dawn of Sorrow
Composer(s): Michiru Yamane
Style: Transcription
Series: Castlevania

AutoScroll: Slow | Medium | Fast
Cursed Clock Tower
Castlevania: Dawn of Sorrow
Composed by Michiru Yamane
Tabbed by Richard Schaefer (richard@gametabs.net)
4/15/07

This is a revision of my original tab which can still
be found at http://www.gametabs.net/tabs/ds/dos/cct.txt

e-------------------------------------------------
B--7-------------7--------7-----------------------
G------9-7-6---------6--------9-7-6------6-7---6--
D------------9----------------------9--9----------
A-------------------------------------------------
E-------------------------------------------------

e--------------------------------------------------
B--7-------------7-7-------------------------------
G------9-7-6-----------6------6-7-6---9-7-6-7---6--
D------------9--------------9-------9--------------
A--------------------------------------------------
E--------------------------------------------------

e--------------------5-----
B--------------5--7-----8--
G-----4--6--7--------------
D--4-----------------------
A--------------------------
E--------------------------

e-------------------------------------7-----------
B--7---8-7-7--------7-------7---8-7-7----7-7------
G------------9--7-9----------------------------9--
D-------------------------------------------------
A-------------------------------------------------
E-------------------------------------------------

e------------------------------------------------------------
B------7--------------------------------------------------7--
G--9-----9-7-6----6-7---9-7-6--------6--7-6-6-----6----------
D---------------9-------------9--8-9----------6-----9---8----
A------------------------------------------------------------
E------------------------------------------------------------

e----------------------------------------------7-----------
B----------7---8-7----------7--------7---7-7-7----7-7------
G--4h5h6p4---------9-7--7-9-----6-----------------------9--
D----------------------------------------------------------
A----------------------------------------------------------
E----------------------------------------------------------

e----------------------------------------------------
B------7---------------------------------------------
G--9-----9-7-6----6-7---9-7-6--------6--7-6-9-7------
D---------------9-------------9--8-9--------------9--
A-----------------------------------------------9----
E----------------------------------------------------

e-----------14--12-------------------12--------------
B--12h14h15-----------------12h14h15-----15----------
G----------------------------------------------------
D----------------------------------------------------
A----------------------------------------------------
E----------------------------------------------------

e----------------------------------------------------------
B-----------------------------------------14-----------19--
G--12h14h16-16--16-----12h14h16-16--16-------16-16---------
D----------------------------------------------------------
A----------------------------------------------------------
E----------------------------------------------------------

e--19--17----------17--16--
B--------------------------
G--------------------------
D--------------------------
A--------------------------
E-------------------------- x2

e----------------------8---10--11---10-8-11---10-8-8---7--
B--8---------------8--------------------------------------
G------10-8-7---------------------------------------------
D-------------10------------------------------------------
A---------------------------------------------------------
E---------------------------------------------------------

e--------------------------------8---------------------------------
B--11---9-------------8-8---9--------11-10-10--8-----8-10-10---11--
G---------12-10-8--10-----------------------------10---------------
D------------------------------------------------------------------
A------------------------------------------------------------------
E------------------------------------------------------------------

e--13---11--------------------------------12---------10-12-------------------
B----------14-13-11---10-11-12-13---12-13----12---10-------10------10-13-----
G---------------------------------------------------------------12-------12--
D----------------------------------------------------------------------------
A----------------------------------------------------------------------------
E----------------------------------------------------------------------------

e------------------------10---------10-13---10-------10----------------
B---------------------11---------11------------11---------11-----------
G--9-10-12-10---10-10---------12------------------12---------10----10--
D---------------------------------------------------------------12-----
A----------------------------------------------------------------------
E----------------------------------------------------------------------

e--------------------------------------------------------
B--10---------------10-10--------------------10------11--
G-------12-10-9-------------9---9-11---12p11-------------
D---------------12--------------------------------12-----
A--------------------------------------------------------
E--------------------------------------------------------

e--------------------------------------------------------------------
B--------------------------------------------------------------------
G--12---12-9------------9-10---9---------------9---------9-10-----9--
D------------12-11---12----------12-12------12--------12-------------
A--------------------------------------12--------10------------------
E--------------------------------------------------------------------

8 comments on Cursed Clock Tower

plz finnish it!

plz finnish it!

Very good! It would be nice

Very good! It would be nice to see it finished though.

Its a shame this is the only DS Castlevania music we have here. I would thourghly like to see more DoS music, and mabye some Potrait of Ruin stuff too.

I haven't played Portrait of

I haven't played Portrait of Ruin yet, but I wouldn't object to tabbing out more DoS music. I'll finish this one as well. Glad to see some more people that like it.

Done and done

Done and done

We need more dawn of sorrow

We need more dawn of sorrow tabs!

MORE TABS OF THIS I BEG OF

MORE TABS OF THIS I BEG OF YOU

great tab of a great game

You did a great JOB ! love this soundtrack ! btw It took me hours to beat Soma on Julius mode ^^

nice one !

5

nice one !