Login or Register to remove this ad. | Advertise Here

Zelda's Lullaby (Legend of Zelda: Ocarina of Time) Guitar Tab

Submitted: Sep 30, 2007 by archard (Last updated: Oct 05, 2007)

4.719625
Average: 4.7 (107 votes)
Download | Listen
Game: Legend of Zelda: Ocarina of Time
Composer(s): Koji Kondo
Style: Transcription
Series: Legend of Zelda

AutoScroll: Slow | Medium | Fast
Zelda's Lullaby
The Legend of Zelda: Ocarina of Time
Composed by Koji Kondo
Tabbed by Richard Schaefer (richard@gametabs.net)
8/4/06

e--------------------------------5---3----------
B--0---3---------0---3-----0---3-------3---1-0--
G--------2---0-2-------2-----------------------2
D-----------------------------------------------
A-----------------------------------------------
E-----------------------------------------------

e--------------------------------5---3-10
B--0---3---------0---3-----0---3---------
G--------2---0-2-------2-----------------
D----------------------------------------
A----------------------------------------
E----------------------------------------

e--10---8-7-8-7-3-----8---7-5-7-5-0-----10---8-7-8-7-3--8--15
B------------------------------------------------------------
G------------------------------------------------------------
D------------------------------------------------------------
A------------------------------------------------------------
E------------------------------------------------------------

78 comments on Zelda's Lullaby

Wow. Perfect. Eas to play,

Wow.
Perfect.
Eas to play, beautiful, and now my girlfriend loves tohear me play it.
I guess I owe you, haha.
Good job, Rich.

thanks, im a noob at guitar

thanks, im a noob at guitar so this is a simple, nice song to play...

Hey something that makes it

Hey something that makes it sound better
|--------------------|
|--0---3-------------|
|---------2------2---|
|-------------0------|
|--------------------|
|--------------------|

its in the game, it just adds to it, I think it sounds better

Nuh Uh..........

not really...though if you played with someone else one of you could play your part and it might work real nicely.

Where is this part supposed

Where is this part supposed to go?

It looks like right at the

It looks like right at the beginning...
Gonne try it right now...
..neh, the "o" is to low. I like it the way it is.

i dont think the end is

i dont think the end is right but what do i know!

hey, heres something for the

hey, heres something for the ending since ya think it dont sound right, after the 15

|-131210-------------|
|--------------------|
|--------------------|
|--------------------|
|--------------------|
|--------------------|

hehe pretty easy and goood

hehe pretty easy and goood tabs, learned it within 20 minutes...and I play guitar for two dys right now^^

Wow, that was so nice. I

Wow, that was so nice. I played perfectly the first time through, a pretty clean tab!

e-------10---8-7-8-7-3------

e-------10---8-7-8-7-3------
B----------------------8—15-
G---------------------------
D---------------------------
A---------------------------
E---------------------------

at the end
play it that way and sounds better

Dude..........tht is the tab

Dude..........tht is the tab for the beginning of the game...not zeldas lulluby....jsyk

Dude awesome tab sounds dead

Dude awesome tab sounds dead on with the game. As I read your tab I played the song and look at all the notes to match the music fits perfectly.Great for beginners too. Don't listen to any of the noobs who try to tell yo to add or change its PERFECT!

That is amazing...

That is amazing... PERFECTION!!!!!!! I play this all the time now!!!

BOW DOWN TO DA ARCHARD!!!
And don't listen to anyone unless it matches up even more perfectly w/ the actual song. Most times what they play isn't as good... sorry guys...

PS- I'm mostly a bassist, so if you could get bass tabs for something, idk what, just something... yeah =). And METROID tabs, those would be awesome... (long message)

im a big zelda fan and i

im a big zelda fan and i love this its great for beginers and even better players !perfect!

i like it it sounds cool and

i like it it sounds cool and not complicated.
:)

your the best tabber ever

your the best tabber ever you tab all the tunes so perfectly, everything is so perfect please make a tab for Deku Tree's last words.
you make all the tabs so matching and simple with the tunes.
please. please. its because i have played guitar for less then a year and your tabs are simple.

It's simple compared to

It's simple compared to others out there and probably the way Nintendo had originally composed the song since the Ocarina in the game only has a few notes, unless you toggle the controller stick and hold R or L while playing then you can hit almost every note possible (read this in an ol'Nintendo Power). But still… I made a few changes to consider.

At the beginning, change the Open “G” (the same goes for the second verse):

e--------------------------
B--0---3---------0---3-----
G--------2---3-2-------2---
D--------------------------
A--------------------------
E--------------------------

And add a few “slides” to the last bit:

e--10---8-7-8-7s3-----8---7-5-7-5s0-----
B---------------------------------------
G---------------------------------------
D---------------------------------------
A---------------------------------------
E---------------------------------------

e--10---8-7-8-7- b-----------

e--10---8-7-8-7-
b--------------8

Same as three and u dont need the slide or the 3, why bother with the strech.

Great tab but...... where is

Great tab but...... where is the intro?

either its me or if you

either its me or if you switch the strings to make the song go higher then low sounds like the song

wow, thats PERFECT! Sounds

wow, thats PERFECT! Sounds just like it! one of my favorite songs from the whole Zelda series, you did a great job on the tab and now I'm addicted to playing this! ^_^ Bravo

pretty tabs exact sound,

pretty tabs exact sound, quite easy perfect one :D

Actualy, a good way to end

Actualy, a good way to end this would be by strumming a G chord like this:

e------------3--
B----------0----
G--------0------
D------0--------
A----2----------
E--3------------

hey if yall dont like the

hey if yall dont like the ending just end it with

from-15---8-7-8-7-3-3--3

let last note ring for as long as possible

or instead

from-15---8-7-8-7-3---0

or you could just leav it the way it is by the way nice tab arch!! really good.

i Think Bralisk ending tab

i Think Bralisk ending tab sounded good orther wise the song would keep looping? so thats a good way to end it its easy for the beginners which is what he must have had in mind anyways its good and its always good to add your own touch to a song! its kinda boring to play something that has already been writtin... don't ya think?

Dude, I think it sounds

Dude, I think it sounds perfecty the wat it is, Great work!

You are the man ;)

You are the man ;)

Great Job! I LOVE IT!

Great Job! I LOVE IT!

e--10---8-7-8-7-3-----8---7-5

e--10---8-7-8-7-3-----8---7-5-7-5-0-----10---8-7-8-7-3s-3-15
B------------------------------------------------------------
G------------------------------------------------------------
D------------------------------------------------------------
A------------------------------------------------------------
E------------------------------------------------------------

without the 8 on the last 3 notes it sounds better
to slide to 3.. then 3 again end then 15!!

I like it, it sounds like

I like it, it sounds like the acutal song, not bad, not bad

An Octave Higher, sounds

An Octave Higher, sounds more accurate.

e--------------------------------------------17---15---------------
B--12---15--------------12---15-----12---15-----------15---13-12---
G-----------14---12-14----------14-------------------------------14
D------------------------------------------------------------------
A------------------------------------------------------------------
E------------------------------------------------------------------

e------------------------------------17---15-22
B--12---15------------12---15-----13---15------
G----------14--12-14---------14----------------
D----------------------------------------------
A----------------------------------------------
E----------------------------------------------

e--22---20-19-20-19-15-----20---19-17-19-17-12---
B------------------------------------------------
G------------------------------------------------
D------------------------------------------------
A------------------------------------------------
E------------------------------------------------

e--22---20-19-20-19-15--20--27
B-----------------------------
G-----------------------------
D-----------------------------
A-----------------------------
E-----------------------------

arch, whoever you are, you

arch, whoever you are, you make wonderful tabs! everybody's versions sound good to me, maybe i just haven't heard the song in a while. XD but anyway thanks for putting these up here, i too am now addicted to this song! i especially like hitting the 15 at the end! XD

e-2--5--0-----0---2--5--0--2

e-2--5--0-----0---2--5--0--2--5----12--10--5--3--2-0---
B-0-----2--3------0-----2--2-------11------0-------2---
G-0-----2---------0-----2--2-------12------0-------2---
D------------------------------------------------------
A------------------------------------------------------
E------------------------------------------------------

e-2--5--0-----0--2--5--0--2--5--12--10--17--17
B-0-----2--3-----0-----2--2-----11------------
G-0-----2--------0-----2--2-----12------------
D---------------------------------------------
A---------------------------------------------
E---------------------------------------------

e--17--15--14--15--14--------15--14--12--14--12----------
B----------------------15------------------------12------
G--------------------------------------------------------
D--------------------------------------------------------
A--------------------------------------------------------
E--------------------------------------------------------

e-17--15--14--15--14------15--21--21---------
B---------------------15---------------------
G--------------------------------------------
D--------------------------------------------
A--------------------------------------------
E--------------------------------------------

That is honestly one of the

That is honestly one of the best melodies i have ever heard... and played... ;_;
Nice little tune to cheer people up with in my opinion :3
also:
WIN!

Great tab! Thanks man.

Great tab! Thanks man.

WOW! amazing, ive been

5

WOW! amazing, ive been playing guitar for 1 week and cuz i got it for christmas =P and i already remembered how to play this song by heart, thats really awesome! it real easy to learn , im not the greatest guitarest but ill get better in time , awesome tab btw KICK ASS

Excellent job is sounds just

Excellent job
is sounds just like the OG song nice work

good tab... i know its easy,

good tab... i know its easy, but i cant do it very well. ive been playin for a week, but ill keep practicin

ok this is perfect, could

5

ok this is perfect, could you people please stop changing it.......BTW the first one posted was the best don't know why everyone thinks its wrong....

---------38777---- sonds

---------38777---- sonds better lol

i think the ending bralisk

i think the ending bralisk came up with was good

Beautiful :) And soo easy to

5

Beautiful :) And soo easy to play ;) Impressed at my bro, hahaah. I didn't tell him it is so simple he could've played it :P

The girl from Sweden

I feel like your missing a

I feel like your missing a note at the beginning of the second section.

How the heck are you

How the heck are you supposed to play those 10's 8's and 7's! It dosen't sound right! Is this for electric guitar or something?

LOVE this game LOVE this

5

LOVE this game LOVE this song. now all i got to learn is the kokaru song and im good. (not shure on the spelling)and why do they ask me a math question? a computer could figure out 10+3 easy?

e----------------------------

e--------------------------------5---3------------
B--0---3---------0---3-----0---3-------3---1-0----
G--------2---0-2-------2-----------------------2-0
D-------------------------------------------------
A-------------------------------------------------
E-------------------------------------------------

This is how I end this song. Play it after the e15 fret. All I did was add an open G note after the 2nd fret.

And Archard, could you tab the background for this song also? On bass, maybe? That would own

Well, that didn't work.

Well, that didn't work. Anyways, it's just an open G note after the 2nd g fret anyways

Any other players besides me

Any other players besides me notice how fucking beautiful Javo's version was? Sounds a little off in places, but I really liked it. Javo, dude, submit that to the site.

i did notice, with some work

i did notice, with some work that can sound amazing.

Really good tab, as

4

Really good tab, as everybody said before, simple to play and easy to learn.
The Javo's version sounds really great too, even if it's a bit harder to play.

Javo's is great, although I

Javo's is great, although I think the latter half of the song sounds a little barren in comparison with the former.

i play it like

i play it like this:

e-----------------------------5--3-----
B----3----------3----------3--------3--
G-4-----2----4-----2----4--------------
D--------------------------------------
A--------------------------------------
E--------------------------------------

i hope you like it =Þ

im not to sure but if i

5

im not to sure but if i remember right, the first highnote on the e string(fret 10) also has an extra tune after it like this:
e---------------5------3--10---8--7--3------10------8--7--8--7--3
B-0------3--------------------------------------------------
G-----------------------------------------------------------
D-----------------------------------------------------------
A-----------------------------------------------------------
E-----------------------------------------------------------

and so on...
im not sure but thats what i remember. im a noob at guitar still but whatever! good job!!
btw my tab picture thingy sux so try to read it best you can! thx

im not to sure but if i

5

im not to sure but if i remember right, the first highnote on the e string(fret 10) also has an extra tune after it like this:
e---------------5------3--10---8--7--3------10------8--7--8--7--3
B-0------3--------------------------------------------------
G-----------------------------------------------------------
D-----------------------------------------------------------
A-----------------------------------------------------------
E-----------------------------------------------------------

and so on...
im not sure but thats what i remember. im a noob at guitar still but whatever! good job!!

Hi, I really like this, it's

Hi, I really like this, it's easy to play and it annoys my sister, how could it get any better. I only have 1 suggestion, after the second part I feel like I missed something so I added some extra notes, I think it'll sound better this way:

e--------------------------------5---3-10-----------
B--0---3---------0---3-----0---3----------1-0-1-0---
G--------2---0-2-------2---------------------------2
D---------------------------------------------------
A---------------------------------------------------
E---------------------------------------------------

Remember, it's only a suggestion

sorry, something went wrong

sorry, something went wrong it should've been:

e--------------------------------5---3-10------------
B--0---3---------0---3-----0---3-----------1-0-1-0---
G--------2---0-2-------2-------------------------------2
D----------------------------------------------------
A----------------------------------------------------
E----------------------------------------------------

Nice tab

Nice tab archard
i
c
e

t
a
b

a
r
c
h
a
r
d

awesome

awesome

all you people who think the

5

all you people who think the tab is wrong it is perfect the way it is!

I think it was great,

4

I think it was great, thanks!

omg !!!! its soo good, ok im

5

omg !!!! its soo good, ok im a little sleepy but I can cry ... xDDD

Excellent. Brings back

5

Excellent.

Brings back memories.

heh heh i left a comment im

heh heh i left a comment im so bad
and i like this song its easy to play

It's easy to play it, and

5

It's easy to play it, and fun, but I have played the guitar for years... This is too easy for me. Can someone post a more complex version of this song?

just plain awsome

5

just plain awsome

Does this seem any better to

Does this seem any better to you guys?

e--------------------------------5---3----------
B--0---3---------0--3--------0-3-------3---1-0--
G--------2---0-2------2--0-2-------------------2
D-------------------------^---------------------
A----------------------change-------------------
E-----------------------------------------------


Thanks for the tab!  Beautiful song.  Really sums up the game.

Good Change

This may be the only proposed change that seems legit slides aside

Nice Work

5

I could play this for hours ~

archard, i dont know where

5

archard, i dont know where we'd be without you, pay no mind to those people who tell u to change anything, they can post their own damn tabs, i am a HUGE zelda fan and i cant tell u how grateful i am for your tabs they are kick ass!

ahhhh...

So great...at the end, it's not wrong, but hit a 17 and 19 after the 15. It sounds amazing.

Perfect! thanx

5

Thanks alot, this is one of my favs from this game.

perfect !!!!!!!!!!!!!!!!!!!

perfect !!!!!!!!!!!!!!!!!!!

thank you

5

dude thank you for the tabs I can now finally do a song. a song that everyone loves.

five stars

5

nuff said

play this backwards, its the

play this backwards, its the skyward sword theme

Talent Show

Thanks Easy To Play Im A Newb And I'm Doing It For My 5th Grade Talent Show :D

This Tab is awesome! :) check

5

This Tab is awesome! :) check out my youtube channel im not the best but i love to play zelda songs http://www.youtube.com/user/xZeldaGuitarx?feature=mhee