Login or Register to remove this ad. | Advertise Here

Song of Storms (Legend of Zelda: Ocarina of Time) Guitar Tab

Submitted: Sep 30, 2007 by archard

4.609755
Average: 4.6 (41 votes)
Download | Listen
Game: Legend of Zelda: Ocarina of Time
Composer(s): Koji Kondo
Style: Transcription
Series: Legend of Zelda

AutoScroll: Slow | Medium | Fast
Song of Storms
Composed by Koji Kondo
Tabbed by Richard Schaefer
richard@gametabs.net
7/11/06

e-------------------0-1-0-1-0----
B------3-------3--------------1--
G-------------------------------2
D--0-3-----0-3-------------------
A--------------------------------
E--------------------------------

e--------------------------------
B--------------------------------
G--2---------2---2-------0-------
D----0---0-3-------0---3---2-----
A--------------------------------
E--------------------------------

e-------------------0-1-0-1-0----
B------3-------3--------------1--
G-------------------------------2
D--0-3-----0-3-------------------
A--------------------------------
E--------------------------------

e--------------------------------
B--------------------------------
G--2---------2-------2-----------
D----0---0-3------------0--------
A--------------------------------
E--------------------------------

32 comments on Song of Storms

Nice job

Nice job

good tab

good tab

calebelijah's guitar tab for

calebelijah's guitar tab for song of storms is better.(plz dont be mad at me archard)

Don't worry I realize

Don't worry I realize CalebElijah is a god among men.

But he makes his tabs

But he makes his tabs unplayable (at least for me).
Your tabs are (usually) simple and easy, not that really down the neck, fret 50042 bull that he writes.

hmm... Instead of

hmm... Instead of playing:

e---------
B---------
G-----2---
D-0-3-----
A---------
E---------

I think it sounds better as

e---------
B---------
G---0-2---
D-3-------
A---------
E---------

But thats just my opinion. I could be wrong.

i played that and it didnt

i played that and it didnt ring with me, so i fiddled around with it and i thought this sounded more correct..

same riff 1

same riff 2

riff 1 again

riff 2 ... + D5- - -D4 at the end

that was really good but i

that was really good but i think that the tone is better if at the end of the second line you play the open g on the d string instead

well esentially. D5 is G

well esentially. D5 is G open, but i can see why you say that, cause you're guitar probably isnt tuned exactly, i have a tuner and sometimes i cant get mine perfect, so my open g sounds a little higher than my D5. so ya i get where you're coming from

does anybody have a higher

does anybody have a higher pitched tab?

Actually, if you wanna make

Actually, if you wanna make it higher pitched. The easiest way is to add 12. So instead of playing the third fret, you'll play the fifteenth.

If you'd like a higher

If you'd like a higher pitched tab, just add 8 to each note and play it like that. that'll take the tab an octave higher. if you want to go half an octave, just add 4 to each number. Hope that helps, and great tab, by the way!

those tabs sound awsome in a

those tabs sound awsome in a duet with the piano playing the low part. (listen to the actual song to here it"

this tab turns me on. thanks

this tab turns me on. thanks

You King.

You King.

this is identical to

this is identical to windmill hut. i found a better way to play it though.

nice one! all your tabs are

5

nice one! all your tabs are good

Amazing tab. This was my

5

Amazing tab. This was my favorite song and was easy to learn

that was pretty good

4

that was pretty good

Nice job! i love it.

Nice job! i love it.

not to be too rude, but i

2

not to be too rude, but i think this tab kinda sucks, id rather not tab out the way i play it. but it needs strumming, with the part tabbed here, but i play it much farther down the fret boar, start with, just search it on google, youll find plenty of better versions out there

---
---
-------16
-----14
---12
---

Wow...

I like how you comment on this tab saying it sucks and then say your own way of doing this song. First off most of the tabs that arent on game tabs dont have:

---
---
-------16
-----14
---12
---
they actually have
---
----------15
-------14
----12
-----
---

so before you comment and say someone elses tab is wrong, Someone who has gone through the effort to put up a tab, that might i say is not wrong at all, just check to see if it is infact your tab that is wrong.

arch so what if calebs is

5

arch so what if calebs is better : )
if i chose tabs in the list i only choose of urs :)
its so easy for me :D

nice tab,good work!

5

nice tab,good work!

I enjoyed it. Though, I

5

I enjoyed it. Though, I converted it into a bass tab.
It's hard to find cool tunes tabbed for bass, I often have to translate them myself.
Good job mate, thanks for the tab.

u r god

12.75

dude all your tabs sound awesome
and on top of that they are real easy
pure pwn

You wouldn't happen to know

You wouldn't happen to know those 4 chords that are played at the beginning???

Sounds like, in Drop-D

Sounds like, in Drop-D tuning:

   Q   Q   Q    E E H        Q   Q   Q    E E H    
e |------------|------------|------------|------------|
B |------------|------------|------------|------------|
G |------------|------------|------------|------------|
D |----0---0---|----2-------|----3---3---|----2-------|
A |----0---0---|--2---------|----3---3---|--2---------|
D |0-----------|2-----------|3-----------|2-----------|

Archard's tab doesn't appear to use the low E string, so drop tuning won't mess up the rest of it.

the other guy above this comment may be correct

i believe it may be
e |------------|------------|------------|------------|
B |----0---0---|--------2---|----3---3---|--------2---|
G |----0---0---|--------2---|----4---4---|--------2---|
D |------------|----4-------|------------|----4-------|
A |------------|------------|------------|------------|
D |0-----------|2-----------|3-----------|2-----------|

but it could be what the other guy said, just didnt sound 100% to me

Think it's like this

4

Another Awesome tab from Archard!

But when it goes like this
e--------------------------------
B--------------------------------
G--2---------2---2-------0-------
D----0---0-3-------0---3---2-----
A--------------------------------
E--------------------------------

It should be

e--------------------------------
B--------------------------------
G--2--------0-2--2-------0-------
D----0---3---------0---3---2-----
A--------------------------------
E--------------------------------

The rest is awesome ;D

Nice. Im glad its easy.

Nice.
Im glad its easy.

background

make background music too please :)