Login or Register to remove this ad. | Advertise Here

Saria's Song (Legend of Zelda: Ocarina of Time) Guitar Tab

Submitted: Mar 08, 2008 by Shiresky (Last updated: Mar 08, 2008)

4.51515
Average: 4.5 (33 votes)
Download | Listen
Game: Legend of Zelda: Ocarina of Time
Composer(s): Koji Kondo
Style: Transcription
Series: Legend of Zelda

AutoScroll: Slow | Medium | Fast
Game: The Legend Of Zelda: Ocarina Of Time
Song: Saria's Song
Tab: Rudy Cortez (nemesis335142.tx@netzero.net)

E|------5--7-------5--7----|-----5--7--12--10----7--8--|--7--3----------------|
B|---6----------6----------|--6------------------------|--------5----------3--|
G|-------------------------|---------------------------|----------------------|
D|-------------------------|---------------------------|----------------------|
A|-------------------------|---------------------------|----------------------|
E|-------------------------|---------------------------|----------------------|


                                                                           
--0--3--0------------|-----5--7-------5--7----|-----5--7--12--10----7--8--|
---------------------|--6----------6----------|--6------------------------|
---------------------|------------------------|---------------------------|
---------------------|------------------------|---------------------------|
---------------------|------------------------|---------------------------|
---------------------|------------------------|---------------------------|


                                                                       
--12--7--3----------7--|--3-----0----|--------1----3--5--7----|
-----------------------|-----3-------|--3--5------------------|
-----------------------|-------------|------------------------|
-----------------------|-------------|------------------------|
-----------------------|-------------|------------------------|
-----------------------|-------------|------------------------|


                                                                         
--8--7--0----|--1--3--5----7--8--10--|--12--13--15--|
-------------|-----------------------|--------------|
-------------|-----------------------|--------------|
-------------|-----------------------|--------------|
-------------|-----------------------|--------------|
-------------|-----------------------|--------------|


                                                                          
-----0--1----3--5--7----|--8--7--0------|--1--0--5--3--7--5--8--7--|
--3---------------------|---------------|--------------------------|
------------------------|---------------|--------------------------|
------------------------|---------------|--------------------------|
------------------------|---------------|--------------------------|
------------------------|---------------|--------------------------|


                                                       
--10--8--12--10--13--12--7-8--5-|--7---|
--------------------------------|------|
--------------------------------|------|
--------------------------------|------|
--------------------------------|------|
--------------------------------|------|

15 comments on Saria's Song

Best! 5|5

5

Best! 5|5

lol

5

lol

Awesom this is easy and

Awesom this is easy and fun!!!! thanks!!!!

thats awesome but i know

5

thats awesome but i know this parts in that backround beat but try to add it at the end

i love you man...no homo

5

i love you man...no homo

Great man A super tab jeje

5

Great man

A super tab jeje

mmm that is a bit out of

mmm that is a bit out of tone

I'm playing it like this

I'm playing it like this way, check it out... sounds good to me (or at least how i remind it)

E|------5--7-------5--7---------5--7--12--10----7--8--7---|----------------------------|
B|---6----------6------------6------------------------------------|--8-----------------8---5|
G|------------------------------------------------------------------|-----9-----7----9--------|

Awesome tab but the ending

Awesome tab but the ending is a little hard.

Awesome Tab

Awesome tab and easy to play as well

Still practicing.

5

Very cool and creative song. Easy!!! Except ending. :)

THIS IS AWESOME

5

I am soooo thankful this guy made it. I LOVE YOU TABBER

Sound weird?

does this sound weird to anyone or just me?

right here

5

right here e|7--3-| B|5-| I play e|--7-| B|-8--5- sounds purty much the same but it easier. And gr8 tab

HOnestly the best tab of this

5

HOnestly the best tab of this i've ever seen. I had learned this before but i couldn't do the end bit.
Nice Job