Login or Register to remove this ad. | Advertise Here

Kokiri Forest (Legend of Zelda: Ocarina of Time) Guitar Tab

Submitted: Sep 30, 2007 by archard

4.916665
Average: 4.9 (12 votes)
Download | Listen
Game: Legend of Zelda: Ocarina of Time
Composer(s): Koji Kondo
Style: Transcription
Series: Legend of Zelda

AutoScroll: Slow | Medium | Fast
Kokiri Forest
The Legend of Zelda: Ocarina of Time
Composed by Koji Kondo
Tabbed by Richard Schaefer (richard@gametabs.net)
8/5/06

e--------------1
B--3--1---3--4--
G---------------
D---------------
A---------------
E---------------

e----8---0----0--1-3h5p3-1h3p1--0---0--
B--8---8---3----------------------3---1
G--------------------------------------
D--------------------------------------
A--------------------------------------
E-------------------------------------- x2

e------------------0-------------------------1--------------------0
B----1---0-3-----1---3-0-----1---0-3---1-3-4----3
G--2---2-------2-----------2---2----------------- Play twice then ^
D------------------------------------------------
A------------------------------------------------
E------------------------------------------------

e--3h5p3--1h3p1--0h1p0-----------------
B-----------------------3-1---1-3-1----
G---------------------------3---------0
D--------------------------------------
A--------------------------------------
E--------------------------------------

e--8h10p8--6h8p6--5h6p5--3-1-0-1-3--0-----3-----6
B------------------------------------------------
G------------------------------------------------
D------------------------------------------------
A------------------------------------------------
E------------------------------------------------

24 comments on Kokiri Forest

after the second line you

after the second line you can put this...

e---------------
B-------3-------
G-3-2-3---5--2--
D---------------
A---------------
E---------------

but it didnt turn out right

but it didnt turn out right

sounds right

sounds right

e--------------- B-------3---

e---------------
B-------3-------
G-3-2-3---5--0--
D---------------
A---------------
E---------------

sounds abit better

nice is my intro

nice is my intro version

e-----------
B-----------
G-6-4-6-7-9-
D-6-4-6-7-9-
A-4-2-4-5-7-
E-----------

;)

---------- --------3- 5-3-5-6

----------
--------3-
5-3-5-6-3-
5-1-5-6-1-
3-1-3-4---
----------

my intro :D

after

after the:

e----8---0----0--1-3h5p3-1h3p1--0---0--
B--8---8---3----------------------3---1
G--------------------------------------
D--------------------------------------
A--------------------------------------
E--------------------------------------

I'd but in:

e---------------
B---------------
G-2---0-2-5-2---
D---------------
A---------------
E---------------

Think it sounds good

oh sorry didn't formated

oh sorry didn't formated it

but you can read it this way, don't you?

I fixed the formatting for

I fixed the formatting for you. See the link below the submit comment button for formatting rules.

Another awesome one

Another awesome one archard!!

This one does a better job

This one does a better job at getting the melody, but I think the other can focus on harmony and background better.

nice, i cant play it very

nice, i cant play it very well but it sounds good

after

after the:

e----8---0----0--1-3h5p3-1h3p1--0---0--
B--8---8---3----------------------3---1
G--------------------------------------
D--------------------------------------
A--------------------------------------
E--------------------------------------

I'd but in:

e---------------
B--------3------
G--3---3---5-0--
D----3----------
A---------------
E---------------

Think it sounds perfect

NIce

there was a lot of people who: "i would put..." and all suck
but yours is perfect ;)

i'm not so good at playing

i'm not so good at playing tabs so can someone please tell me what the "h" and "p" stands for?

like here in the song:

e--8h10p8--6h8p6--5h6p5--3-1-0-1-3--0-----3-----6
B------------------------------------------------
G------------------------------------------------
D------------------------------------------------
A------------------------------------------------
E------------------------------------------------

Absolutely awesome, Archard,

Absolutely awesome, Archard, although some notes can be added in parts if need be.

e----8---0----0--1-3h5p3-1h3p1--0---0--
B--8---8---3----------------------3---1
G--------------------------------------
D--------------------------------------
A--------------------------------------
E--------------------------------------

After this part, you can play

e-------------
B--1-----3-1--
G----0-3-----0
D-------------
A-------------
E-------------
the first time, and the second time without the 0 on the G string being played.

And at the end of this part you could add:

e--3h5p3--1h3p1--0h1p0---------------------------
B-----------------------3-1---1-3-1-------3--1---
G---------------------------3---------0----------
D------------------------------------------------
A------------------------------------------------
E------------------------------------------------

I also noticed a few hammer ons and pull offs that could be put in this section:

e------------------0-------------------------------1h3p1---0
B----1---0-3-----1---3h5p3-0-------1---0-3---1-3-4-------3--
G--2---2-------2-------------2---2---2----------------------
D-----------------------------------------------------------
A-----------------------------------------------------------
E-----------------------------------------------------------

Your's sounds the best by

Your's sounds the best by far, all the others are way off. Thanx, from the very start i thought something was missing from this song.

sounds good, easy to play. 5

sounds good, easy to play. 5 stars (H)

BEST SOUNDING 1

e---------------
B--------3------
G--3-0-3---5-0--
D---------------
A---------------
E---------------

sounds good

5

sounds good

My intro(metal) ^-pinch

My intro(metal)
^-pinch harmonic
e------------------
b------------------
g------------------
d--7-5-7-8------
a--7-5-7-8-7^--
E--5-3-5-6------

very good!

5

very good!

H and P

H means hammer-on and P means pull-off

intro

5

this has to be by far the best intro except i dont know how to write the tabs lol

    -------------------
    3-----1---3---4---6
    4-----2---4---5---7
    5-----3---5---6---8
    -------------------
    --------------------