Login or Register to remove this ad. | Advertise Here

Gerudo Valley (Legend of Zelda: Ocarina of Time) Guitar Tab

Submitted: Sep 30, 2007 by archard (Last updated: Sep 12, 2009)

4.91603
Average: 4.9 (131 votes)
Download | Listen
Game: Legend of Zelda: Ocarina of Time
Composer(s): Koji Kondo
Style: 2 or more instruments, Transcription
Series: Legend of Zelda

AutoScroll: Slow | Medium | Fast
Gerudo Valley
Composed by Koji Kondo
Tabbed by Richard Schaefer
richard@gametabs.net
7/12/06

Intro

e------------5-----4-7-9
B----------7-----6------
G------4-7--------------
D----6------------------
A--4--------------------
E-----------------------

This is what the second guitar plays pretty much throughout the whole song.
It's just a succesion of 4 chords played one after another in this order:

  F#m      D       E      C#/F
e--2-------2-------0-------1
B--2-------3-------0-------2
G--2-------2-------1-------1
D--4-------0-------2-------3
A--0-------0-------0-------0
E--0-------0-------0-------0

Main guitar

e----2-4-5-----2-4-5-----2-4-5-----2-4-5-----0-2-4-----0-2-4---2-4-2-1
B--2---------2---------3---------3---------0---------0----------------
G---------------------------------------------------------------------
D---------------------------------------------------------------------
A---------------------------------------------------------------------
E---------------------------------------------------------------------

Trumpet comes in...

e----2-4-5-----2-4-5-----2-4-5-----2-4-5-----0-2-4-----0-2-4---5-7-5-4
B--2---------2---------3---------3---------0---------0----------------
G---------------------------------------------------------------------
D---------------------------------------------------------------------
A---------------------------------------------------------------------
E---------------------------------------------------------------------

e----5-4-2-----0h2p0---------4-2-0-------------------5-4-2-----0h2p0--
B--2-------2-5-------3-----0-------3-2-3h5p3-2-----2-------2-5-------3
G---------------------------------------------------------------------
D---------------------------------------------------------------------
A---------------------------------------------------------------------
E---------------------------------------------------------------------

e---------------------
B----------7-5-----3-2
G--2-4----------------
D---------------------
A---------------------
E---------------------

e--5-4-5-4-----------------------4-2-4-0--------------
B----------2-5---3p2-3-------------------3-2---3h5-3-2
G-----------------------------------------------------
D-----------------------------------------------------
A-----------------------------------------------------
E-----------------------------------------------------

e---------------------------------------
B--------2---------2---------3---------3
G----1-2-------1-2-------1-2-------1-2--
D--4---------4---------4---------4------
A---------------------------------------
E---------------------------------------

e----------4-2--------
B------------------0-2
G--2-4----------------
D---------------------
A---------------------
E---------------------

Trumpet Solo

e--5-4-5-----4-5-7-5-4-5-4-5-----4-2-4-------4-5-4---4----
B----------7-----------------------------5-7-------7---7-6
G---------------------------------------------------------
D---------------------------------------------------------
A---------------------------------------------------------
E---------------------------------------------------------

e--5-4-5-----4-5-7-5-4-5-4-5-----7-5-7---4-5-7-9-10-12-9-10-9
B----------7-------------------------------------------------
G------------------------------------------------------------
D------------------------------------------------------------
A------------------------------------------------------------
E------------------------------------------------------------

e---------------------------------------------------------------------
B--------------------------------------------------------------3h5-3-2
G----2-1-2-----2-1-2-----2-1-2-----2-1-2-----4-3-4-----4-3-4----------
D--4---------4---------0---------0---------2---------2----------------
A---------------------------------------------------------------------
E---------------------------------------------------------------------

This is one of the most beautiful songs I ever heard.
I hope you have as much fun playing it as I do :)

151 comments on Gerudo Valley

PERFECT!!!!!!!!!!! it is

PERFECT!!!!!!!!!!! it is the exact notes! Great!

everything is great... i

everything is great... i really like it, exept the chords...
F#m, and C# need to be completely barcoded...
other than that its good...

nice, but i don't really

nice, but i don't really understand the H but nice, I can hear it on my guitar;D

h = hammer on p = pull off

h = hammer on
p = pull off

thanks;D

thanks;D

hi i just started playing

hi i just started playing guiutar and archard your the best tabber ever i come on this site because im a zelda fan and learn the tabs from the music

have you got any tips for a

have you got any tips for a bigginer guitarist

yes.

Learn to spell BEGINNER. Ha, other than that, practice a lot, and just play what feels good to you

Practice EVERY day.

Practice EVERY day.

MAN. YOU ARE A FUCKING LIFE

MAN. YOU ARE A FUCKING LIFE SAVER. I AM A ZELDA FREAK AND I WAS LOOKING FOR THESE TABS FOREVER. I am glad. I hope u keep up the good work. umm... i also like spanish music... if you know of any please tell me. my email is

johnathanpeters@hotmail.com

THX GUYS!!! :)

Very nice tab men, congrats

Very nice tab men, congrats

good tab the chords are a

good tab
the chords are a little off, but o well
they go
2 2 0 1
2 3 0 2
2 2 1 1
4 0 2 3
4 0 2 4
2 x 0 x

with the right strumming and everything
otherwise great

The Chords are F#m, D, E

The Chords are F#m, D, E Major, and C#Major.

Another excellent job! This

Another excellent job! This is probally the best tab I've encountered for this song.

good job man, this is an

good job man, this is an excellent tab.

you rock man THANX

you rock man THANX

very good tab man u still

very good tab man u still rock

That's not right, i have the

That's not right, i have the right tabs on GP5.

oh really? why not post it

oh really? why not post it on an upload site and enlighten us?

...

Oh enlighten us, great one, with the powers of Guitar Pro!!! Please, oh, please!!!

So why don't you send it to

So why don't you send it to me so I can publish it?

fucking accurate as shit,

fucking accurate as shit, thanks!

My favorite tab on the site.

My favorite tab on the site. Tabbed beautifully, for a beautiful song.

Keep up all of the nice work.

Man this is perfection! I

Man this is perfection! I love it!

Hello I am a really noob at

Hello

I am a really noob at guitar But I can still play the song and it sound alrite but I don´t really understand 0h2p0 and all those. My friend said that u can only do hammer on and Pull of f on an elektric guitar. Is it bpossiable to play it on a normal guitar when I do it its really low and sounds wierd.

linppan, I do hammer ons and

linppan, I do hammer ons and pull offs on the classical guitar everyday. It sounds fine to me, I don't have an electric guitar.

Yes linppan, you can do

Yes linppan, you can do hammer ons and pull offs and any guitar.

perfect. i love the

perfect.
i love the song.
i've been playing the guitar for 4 years and i've played Zelda longer than that and i don't know why i just started trying to play this song. lol. i can play 3 other Zelda songs but this is the best one yet.

Maybe I am just doing wrong

Maybe I am just doing wrong :P I am kinda bad after all.
for example 0h2p0 Means that I pull the string and half tru i push the finger down to the 2nd fret. Then make I pull the string again while holding the finger on the 2nd fret and realease it about half way thru? Since I am from sweden I dunno if it´s called frets butI hope you under stand.

You got the first part

You got the first part right. Pluck the string and then push down on the 2nd fret without plucking the string again. That's what a hammer on (h) is. Then you release the string to the open position, again, without plucking the string. That's the pull off (p).

What's the strumming

What's the strumming pattern? I think it's d.U.U-U.d.U.d.U and repeate.

I'm not so sure though...

d = down and U= up... =P

wow awesome tab. Long live

wow awesome tab. Long live Ganondorf!

Dear noobs,

the h means hammeron and p means pullof.
scroll up cuz im too lazy to explain em

good job dude

Wow, dude, just wow. Not

Wow, dude, just wow. Not only is this song absolutely awesome, but the tab is also easy and fun to pick up. Much props to you.

Just started playing, but it

Just started playing, but it looks and sounds like the song. I'd have to play it faster, but I just looked so whatever.

Pretty cool actually, it might sound better on a different guitar.

:D

Holy Crap this is sweet i

Holy Crap this is sweet i fianaly found it. Well im slow as hell at playing guitar but i love this song and now can finaly play with some work

sick mann

sick mann

in this part after you hit

in this part after you hit the 1 @ the end follow up with a
harmonic on 12th fret and hit a virbrato on 8 and if u got a peddle a squeeze fxt will work on the end of it also try harmonics instead of the 0s

e---------0-2-4-----0-2-4---2-4-2-1-har12-v8-sq--0-----------------------
B--2---------2---------3---------3---------0---------0-------------------
G-------------------------------------------------------0----------------
D----------------------------------------------------------0-------------
A-------------------------------------------------------------0----------
E----------------------------------------------------------------0-1-----

go to this site, it has a

go to this site, it has a better tab but its missing the intro. http://www.azchords.com/t/themesongs-tabs-4355/zeldagerudovalleycorrect-...

this is really good. i've

this is really good. i've played this song with my friends, me on bass, one on maracas and two on guitar. the guy who played lead guitar used this tab, so thanks a lot

I find ur tab the easiest

I find ur tab the easiest tab to read. i wondered if you have any tips for playing tis song im having trouble.

do you have a tab for this

do you have a tab for this for just 1 guitar because i havnt really got any one to play guitar with and this is one of my fav songs of out of zelda.

It is for one guitar, isn't

It is for one guitar, isn't it? Unless you're talking about the strumming, in which case I don't see how you could do the strumming and melody at the same time.

lol ok how can a trumpet

lol ok how can a trumpet play tabs?

Easy, Bb(flat)on a guitar =

Easy, Bb(flat)on a guitar = C on a trumpet. Just transpose the the notes up one half step.

you can't play guitar tabs

you can't play guitar tabs on a trumpet, you have to find trumpet music :P

the tab is just a bunch of

the tab is just a bunch of notes. you can play the notes on any instrument. or vocalize it. this tab sounds pretty good to me man. ive been playing for like three years and this is one of my favourite songs. its a beautiful song and i have a lot of fun playing it on my accoustic guitar. so thanks archard i really appreciate it.

Just wanted to say, this is

Just wanted to say, this is a great song for a beginning guitarist. I just started playing (and learned to read tabs) today, and I can already play my way through the song. Granted, I'm not at full speed yet, but for such a nice song, the progress I've made is pretty impressive. Thanks for the tabs. :]

Alright man all i have to

Alright man all i have to say is OMFG
this is dead on, i listened to the song on my N64 as i played it and its perfict, not to mention i just picked uo my dads guitar and statrted playing, then i found this tab and i LOVE it
thnx man your the best

WHATTTT!!!!! Thats crazy!

WHATTTT!!!!! Thats crazy! love it! but still i cant play that last chord well lol need to get my fingers used to moving in that position lol

That last chord can be done

That last chord can be done another way:

e: -
B: 6
G: 6
D: 6
A: 4
E: -

Just another way of playing C#, the catch is its a long way to move your hand, I find it easier than that other wacky variation ;)

thanks so much dude i love

thanks so much dude i love this song and you made it so easy to play

im also just beginning to

im also just beginning to play and i hope i can play these very soon

My non-Zelda playing friends

My non-Zelda playing friends all think I'm some kind of flamenco master now! I love this song!

Awesome dude! I love it!

Awesome dude! I love it!

if you want to play this

if you want to play this yourself, one guitar...record the strumming, then play the song ;-) you could also record both and put them together.

oh, and here the link to the

oh, and here the link to the song
http://nl.youtube.com/watch?v=aS43TihANi4
no problem!

http://www.youtube.com/watch?

http://www.youtube.com/watch?v=aS43TihANi4
I mean, the first is the dutch version...

hey archard, the chords on

hey archard, the chords on the background...they change, and they don't in your tab...you might want to add that so we can play it right. great job on the tab

An easier version for

An easier version for begginers, will sound the same:


e----5-4-2--0--0-2-0---------4-2-0------0------------5-4-2--0--0-2-0--
B--2-------2---------3-----0-------3-2-3-3-2-------2-------2--------3-
G---------------------------------------------------------------------
D---------------------------------------------------------------------
A---------------------------------------------------------------------
E---------------------------------------------------------------------

Thanks for the nostalgic

Thanks for the nostalgic moments :D Very Nice!In my youth I dealt with this game a lot of time. Go on playing dude ;)

Man, i have to say

Man, i have to say it...
It's perfect!!
this music is awsome!
congrats!

awesome!!!! i love this song

awesome!!!! i love this song its so fun to play and once you get is kinda easy!!11111

try this

i find it easier to play as such:

E-----------------------------------------
B------------------------------------------
G---------6~-------6~-------7~--------7~
D---4h6h7----4h6h7----4h6h7----4h6h7-----
A----------------------------------------
E-----------------------------------------

etc.

Can anyone help me with the

Can anyone help me with the part

e---------------------------------------
B--------2---------2---------3---------3
G----1-2-------1-2-------1-2-------1-2--
D--4---------4---------4---------4------
A---------------------------------------
E---------------------------------------

I have no idea how it sounds.

thats a harder part to play

thats a harder part to play first of all and its just a type of rising sound..

This song is the fucking

This song is the fucking best man!!! I'm a beginner and like i dont really know how to like do hammer ons and pull offs but like ive read like most of the comments here nd i think im gona give this song much attention and hopefully it will sound half decent :P

I love it. Perfect song for

I love it. Perfect song for a couple guitars, and accurate as anything.

I LOVE THIS SONG AND U DID A

I LOVE THIS SONG AND U DID A GREAT JOB TABBING IT! UR A LIFESAVER!!!! my friend rubs the fact that she can play kokiri forest in my face, now i can rub this in hers

its perfect...but wheres the

its perfect...but wheres the intro

well not exactly the intro

well not exactly the intro but the beginning part before it starts

I've been playing this song

I've been playing this song for a long long time. Your trumpet solo is awesome, but I think the main guitar needs some work.

For the first (bridge?) should be:

e---------------------
B----------7-5-----3-2
G--2-4-----4-4-----1-1
D--4-2----------------
A---------------------
E---------------------

And the second one:

e----------4-2--------
B----------5-3-----0-2
G--2-4-------------1-1
D--4-4----------------
A---------------------
E---------------------

The last section sounds better like this: (I hope this looks right. If it doesnt, just move the first two D4s to A4s)

e---------------------------------------------------------------------
B--------------------------------------------------------------3h5-3-2
G----2-1-2-----2-1-2-----2-1-2-----2-1-2-----4-3-4-----4-3-4----------
D----------------------0---------0---------2---------2----------------
A--4---------4--------------------------------------------------------
E---------------------------------------------------------------------

Finally, (From "Trumpet comes in") on the second and fourth lines, whenever a G5 follows the G2, I would play that G5 as an e0)

I hope this helps.

Also, e----------------------

Also,

e---------------------------------------
B--------2---------2---------3---------3
G----1s2-------1s2-------1s2-------1s2--
D--4---------4---------4---------4------
A---------------------------------------
E---------------------------------------

Just a suggestion. (Sorry Archard. I don't know how to make it look normal ): )

Sounds like the game. How it

Sounds like the game. How it brings back memories. Awesome Job.

yall need to stop critizing

yall need to stop critizing his work this is the best tab ever i love it archard 5 stars^^

Agreed

I agree. This is almost note for note perfect. I never see tabs even half this good for anything. And all of you who say "play it this way also", there is more than one way to play any given note, chord, or scale on a guitar. It's cool if you have another style, like some of you guys who play a 1-string melody and think youre awesome. His is fluent and stylish, and I'm going to go look at other tabs he has done because he actually knows what hes doing

hey this tab is

hey this tab is awesome.
nice work

always wanted to play this and now i can
cheers.

not to be a picker but the

not to be a picker but the chord for acoustic i think should be:

E|-2- -2- -0- -1-
B|-2- -3- -0- -2-
G|-2- -2- -1- -1-
D|-0- -0- -0- -0- it sounds better i think and it is easier 2 play (i dont have very long fingers)

I play it that way too, I

5

I play it that way too, I just play it with a 4 on D in the first two parts

E|-2- -2- -0- -1-
B|-2- -3- -0- -2-
G|-2- -2- -1- -1-
D|-4- -4- -0- -0-

to me this is easier to play but archard's is still very nice.. I do the strumming by instinct but its generally something like this
d u d u u x2 in each part - or something like that anyway
the lead guitar rocks archard nice jobb

i have an electric and ive

5

i have an electric and ive been playing for about two monthes. should i get a roland 15W cube? many of my friends recommended it and i saw the porfessional reviews and it scored very high. i play in my bedroom, so is it worth it? also, does effect pedals enhance the song, if so, which one should i buy?thx!

im a beginner and i have an

5

im a beginner and i have an elec guitar but no amp. is it supposed to sound kinda wierd when you play w/o the amp(esp the first four chords)? also how can u play both guitar parts with just one guitar?

okay if you have short

okay if you have short finger like i do you can play the last cord an alternate way if my correction come out wrong sorry.^^

e-----|
b--6--|
g--6--|
d--6--|
a--8--|
E--9--|

if any of you guys have

5

if any of you guys have short fingers like i do it alternate way to play the last cord.sorry if the tab or correction comes out wrong.

e-----|
b--6--|
g--6--|
d--6--|
a--8--|
E--9--|

sorry if i sent two messages

sorry if i sent two messages

this is a really good tab i

5

this is a really good tab i played it my first time pretty fast and it sounded perfect

...*drools* You'll need

...*drools*
You'll need lightning fingers to do this... Oh well, it's worth the practise! Good tabbing!!! Sounds exact to me!

An awsome tab man!!!!!!

An awsome tab man!!!!!! I've been looking for this tab for about a year the funny thing is, I'm only 11!

great tab^^ I love this

5

great tab^^ I love this song!!!

THATS AN EPIC PIEcE THAT YOU

THATS AN EPIC PIEcE THAT YOU HAVE MADE, I hope that your proud of it cause I am.

sorry for my noobness, but

sorry for my noobness, but whats the deal with that L on the tab

answer for you

The L on the tab means "Legato". Basically let the note ring, and shake it slightly so it sounds a little bit wavy if you'd like

An L means tie. Usually you

An L means tie. Usually you will see a note and then in the place where another note would be you'll see an L. That means hold the note you DID play for the same amount of beats as the note you didn't play as well. You "tie" multiple notes together to form one larger note, if you will. So, for example, say you have a quarter note and then another quarter note. You would normally play these as two notes. However, if that quarter note is TIED to the other quarter note, you start by playing the first note, but you just hold that note out for the duration of the second note. Now instead of two beats, you have one long beat that lasts for two beats. This also works for notes of different duration. Say you have a quarter note and an 8th note. Again, if they weren't tied they'd sound like two notes, but if you tie them together you now have one note that lasts for one and a half beats. Get it?

Omg.... I just orgasmed....

5

Omg.... I just orgasmed.... I had an ear-orgasm I mean. You're right; it's a beautful song. And the tabs re excellet. And the chords seem right.

Perfect. No more, no less.

Any tips for the beginning

Any tips for the beginning section? I can't seem to get it right...

tippity

that one vague kid said

Any tips for the beginning section? I can't seem to get it right...

For the intro or the main guitar part? For the intro, just go slowly at first, and listen to the song in-game to get the rhythm. That's what I always do, anyways. And just keep practicing. You'll get it eventually! =D

tnkz man nice song lil hard

tnkz man nice song lil hard but good i still cant play it xD

this tab is fuckin accurate.

5

this tab is fuckin accurate. this is also one of the most beautiful songs ive ever heard. now you have brought the beauty to everyone. you rule

wow dude! this is my

5

wow dude! this is my favorite song from zelda AND NOW I CAN LEARN IT ON GUIAR! thanks alot=)

if you want this tab on

if you want this tab on guitar pro format, check at http://gametabber.blogspot.com ... its damn perfect on that site

Whoa! this is an awesome

5

Whoa! this is an awesome tab! I m having a bit of a struggle with that quick little intro before the strumming... And also after the beginning of the trumpet solo... =( I am fairly new to guitar, and this is the first time I've tried a song from a game... It's ALOT of fun though!

Don't be afraid to slide

Don't be afraid to slide instead of hammer

Beautiful. Thankyou. I've

5

Beautiful. Thankyou. I've always been in love with this song.

wow im new to guitar but

wow im new to guitar but archard u must be really good at guitar, ur tabs are great. zelda songs are good because some songs are beginner like eponas song and then some are a bit harder like this one, thanks !

Can someone please tell me

Can someone please tell me what the rhytem of the chords is, so is it up up down or something, for don't know how it should be done, and videos don't work

for the second guitar i like

for the second guitar i like 2 2 0 1 On the three highest strings.
2 3 0 2
2 2 1 1

i figured out some of this

5

i figured out some of this song on my own, but this tab saves me a lot of time. thanks! can you please tab out the music for the Spirit Temple? i have an mp3 you can listen to and go off of.

awesome, wonderful 'n

awesome, wonderful 'n stunning. great tab man

THANK YOU

5

THANK YOU

Awesome tab. But I noticed

5

Awesome tab. But I noticed that you trimmed off the chords for the 2nd guitar part. Personally I think it sounds better when you use the full chord instead of just the easy version. Just a thought, but an awesome tab none the less.

wow, nice tab ^^ Great job

wow, nice tab ^^
Great job and I didn't find any misses worth mentioning in the melody.

when it comes to the trumpet solo it is MUCH easier to play it in the 9th box.

------------------------------------
--10-9-10------9-10-12-10-9-10-9-10-
------------11----------------------
------------------------------------
------------------------------------
------------------------------------

-----------------------------------
--9----9--------9-10-9----9--------
----11-----9-11--------11---11-10--
-----------------------------------
-----------------------------------
-----------------------------------

------------------------------------
--10-9-10------9-10-12-10-9-10-9-10-
------------11----------------------
------------------------------------
------------------------------------
------------------------------------

---------------------9-10-12-10h12p10p9-
--12-10-12---9-10-12--------------------
----------------------------------------
----------------------------------------
----------------------------------------
----------------------------------------

this is so sweet i love it.

5

this is so sweet i love it. archard could you make a tab for prelude of light

the best guitar song ever

5

the best guitar song ever but the hammmer on and pull off that fcks the song up for me :s it goes very nice and then that comes -.-'

Brilliant! I enjoy playing

5

Brilliant! I enjoy playing this song almost everyday.

mate its perfect ;) ***** i

5

mate its perfect ;) *****
i did not doubt a second about the tabs, but my eye & finger coordination... -.-'

AWESOME!!

5

AWESOME!!

One of the best game songs

One of the best game songs out there, i remember jumping across that bridge with epona back when i was 6 years old

wow!! great

5

wow!!
great tab!

congratulations!!!

5 stars for this tab

Just PERFECT!!The best song

5

Just PERFECT!!The best song i've ever heard!!

Pimp diddy

5

Pimp diddy

suprisingly easy! and

suprisingly easy! and perfectly tabbed! wow! well done! u rock!

beany1324 said suprisingly

beany1324 said

suprisingly easy! and perfectly tabbed! wow! well done! u rock!

I AGREE WIT U!!!!!! LOL!!!!

U R #1 !!!!!!!! LOL!!!!

Re: Gerudo Valley

it looks like the tab needs trimming
not the notes but the extra dash at the end of each line

OMG!! This Song

Omg!! This song rocks!! I can play part of it w'o looking, and once I get the whole thing down, I'll be jumping for joy, then I'l sprain my ankle while doing it, then I'll have to rest for about two seconds then jump some more then play it and forget everything, haha

wow.....

Dang, can't play it fast enough...... anyway thanks for putting it in

srry 4 being so depressing

srry 4 being so depressing

AWESOMENESS!!!!!!!!!!

WOOT!!!!!!!!!!!!!!!!!!!!!!!!!!!!!!!!!!!!!!! THANKS ALOT!!!!!!! AWESOMENESS!!!!

Wujong5

Wujong5 said

WOOT!!!!!!!!!!!!!!!!!!!!!!!!!!!!!!!!!!!!!!! THANKS ALOT!!!!!!! AWESOMENESS!!!!

WOOT!

Nice

5

its perfect, nice job and gratz

this is everyones fav zelda

5

this is everyones fav zelda song

awesome

awesome

great tab

5

great tab

I absolutely love this song,

I absolutely love this song, and how perfectly well you put it together.
I do agree, with everything, that this is honestly a beautiful song, and is one of the bests I've ever heard from a video game.
Go Zelda fans!
and Great job on the tab.
I enjoy playing it.

Sweet tab

I had always thought that there was another note to the song but this is as accurate as it gets

Meh.

4

It's a very good tab, but the chords aren't perfect, and some of the notes can be simplified. Making it much harder than it needs to be.

Did you check out the other

Did you check out the other tabs for this song? There's two others for guitar.

it´s perfect and correct

it´s perfect and correct

thank u so much, u r a god

5

thank u so much, u r a god amongst ants!

Very nice tab

5

This is a pretty little diddy to play, archard. I would incorporate the bridge stuff from "Anonymous," but other than that it's all good. The slide on the rising part is optional, I would imagine, but it can be a little easier to play. On the whole, this is great. =)

MTM (Brandon)

Its definetly amazing but the

Its definetly amazing but the strumming pattern for the chords is: V^VV ^V^VV ^...

V: Strum Down
^: Strum Up
(space between strums): Pause for just a fraction of a beat

the upstroke at the end of the sequence is for the swich to the next chord

Try this

If anyone has trouble with
e---------------------------------------
B--------2---------2---------3---------3
G----1-2-------1-2-------1-2-------1-2--
D--4---------4---------4---------4------
A---------------------------------------
E---------------------------------------
Try this it's easier
e---------------------------------------
B---------------------------------------
G--------6---------6---------7---------7
D--4-6-7-----4-6-7-----4-6-7-----4-6-7--
A---------------------------------------
E---------------------------------------
And it sounds exactly the same and Btw great as usual Archard keep it up

Blaze, use <*pre> at the

Blaze, use <*pre> at the start of your comment and <*/pre> at the end (remove the asterisks). It fixes up the tab.

Thanks XD

If anyone has trouble here
e---------------------------------------
B--------2---------2---------3---------3
G----1-2-------1-2-------1-2-------1-2--
D--4---------4---------4---------4------
A---------------------------------------
E---------------------------------------

Try this

e---------------------------------------
B---------------------------------------
G--------6---------6---------7---------7
D--4-6-7-----4-6-7-----4-6-7-----4-6-7--
A---------------------------------------
E---------------------------------------
It sounds the same sorry for the screwed up comment before lol

Awesome tabs!

5

I can feel the valley when I play this song, and I haven't heard the videogame play the song in years!

5/5

5

Should be on the first place not down under...
I mean watch the top list -.-
IT IS MNOT NUMBER ONE...
but i lift you higher... i hope XD

I know this is probably me

I know this is probably me just being new to guitar but I was struggling with my placement a bit. I swapped some of the positioning around.

Instead of doing this:
e----2-4-5
b--2------
g---------
d---------
a---------
e---------

I did this

e------4-5
b----7----
g--6------
d---------
a---------
e---------

Also the part here:
e---------
b--------2
g----1-2--
d--4------
a---------
e---------

I found it easier to do:
e---------
b---------
g--------6
d--4-6-7--
a---------
e---------

I cant do the chord parts at all sadly, when I try to play them my guitar sounds like it wants to kill itself.

Best Gerudo Valley Tab

5

This is probably the best Gerudo Valley on this website. Great job. 5/5

nice!!!!!

5

awesome on dude!! luv it!! sounds great too! 5 stars man!

Just one thing

5

I really like the tab very accurate, the only thing I changed was in the fifth bar after the trumpet comes in, I find it more comfortable to play it like so:

G -----------6---------6---------7---------7-----
D ---4-6-7----4-6-7---4-6-7---4-6-7-------

Seriously though, this is a great tab.

Its perfect but you forgot

5

Its perfect but you forgot about the guitar solo

awesome

5

You tabbed so it so great . The only problem is me. with my slow fingers hahaha. nice!

Help?

I can't play this at all I am so confused. Can someone email an mp3 of this being played on guitar? I can't get the fingering down; nothing! It is so frustrating and this is the song that got me into music in the first place... I'd appreciate any help. Lacrimor@yahoo

SUBSTITUTION

I actually replaced this entire section :

e---------------------------------------
B--------2---------2---------3---------3
G----1-2-------1-2-------1-2-------1-2--
D--4---------4---------4---------4------
A---------------------------------------
E---------------------------------------

with this:

e------------------------------------------
B------------------------------------------
G--------6----------6-------7----------7--
D--4-6-7-----4-6-7----4-6-7-----4-6-7----
A------------------------------------------
E------------------------------------------

but it sounds almost alike if Not better in my opinion.