Login or Register to remove this ad. | Advertise Here

Gerudo Valley (Legend of Zelda: Ocarina of Time) Bass Tab

Submitted: Sep 30, 2007 by Calebelijah (Last updated: Sep 20, 2009)

4.666665
Average: 4.7 (3 votes)
Download | Listen
Game: Legend of Zelda: Ocarina of Time
Composer(s): Koji Kondo
Style: Transcription
Series: Legend of Zelda

Click here for a video example.

AutoScroll: Slow | Medium | Fast
Bass
G||-------------------|-------------------|-------------------|
D||-------------------|-------------------|-------------------|
A||-------------------|-------------------|-------------------|
E||-------------------|-------------------|-------------------|

  E.  S S E.  E.  S S E.     E.  S S E.  E.  S S E.
--------------------------|--------------------------|
--------------------------|--0-----0-----0-----0-----|
--------------------------|--------------------------|
--2-----2-----2-----2-----|--------------------------|

  E.  S S E.  E.  S S E.     E.  S S E.  E.  S S E.
--------------------------|--------------------------|
--------------------------|--------------------------|
--------------------------|--4-----4-----4-----4-----|
--0-----0-----0-----0-----|--------------------------|

  E.  S S E.  E.  S S E.     E.  S S E.  E.  S S E.
--------------------------|--------------------------|
--------------------------|--0-----0-----0-----0-----|
--------------------------|--------------------------|
--2-----2-----2-----2-----|--------------------------|

  E.  S S E.  E.  S S E.     E.  S S E.  E.  S S E.
--------------------------|--------------------------|
--------------------------|--------------------------|
--------------------------|--4-----4-----4-----4-----|
--0-----0-----0-----0-----|--------------------------|

  E.  S S E.  E.  S S E.     E.  S S E.  E.  S S E.
--------------------------|--------------------------|
--------------------------|--0-----0-----0-----0-----|
--------------------------|--------------------------|
--2-----2-----2-----2-----|--------------------------|

  E.  S S E.  E.  S S E.     E.  S S E.  E.  S S E.
--------------------------|--------------------------|
--------------------------|--------------------------|
--------------------------|--4-----4-----4-----4-----|
--0-----0-----0-----0-----|--------------------------|

    E.  S S E.  E.  S S E.     E.  S S E.  E.  S S E.
|---------------------------|--------------------------|
|*--------------------------|--0-----0-----0-----0-----|
|*--------------------------|--------------------------|
|---2-----2-----2-----2-----|--------------------------|

  E.  S S E.  E.  S S E.     E.  S S E.  E.  S S E.
--------------------------|--------------------------|
--------------------------|--------------------------|
--------------------------|--4-----4-----4-----4-----|
--0-----0-----0-----0-----|--------------------------|

  E.  S S E.  E.  S S E.     E.  S S E.  E.  S S E.
--------------------------|--------------------------|
--------------------------|--0-----0-----0-----0-----|
--------------------------|--------------------------|
--2-----2-----2-----2-----|--------------------------|

  E.  S S E.  E.  S S E.     E.  S S E.  E.  S S E.
--------------------------|--------------------------|
--------------------------|--------------------------|
--------------------------|--4-----4-----4-----4-----|
--0-----0-----0-----0-----|--------------------------|

  E.  S S E.  E.  S S E.     E.  S S E.  E.  S S E.
--------------------------|--------------------------|
--------------------------|--0-----0-----0-----0-----|
--------------------------|--------------------------|
--2-----2-----2-----2-----|--------------------------|

  E.  S S E.  E.  S S E.     E.  S S E.  E.  S S E.
--------------------------|--------------------------|
--------------------------|--------------------------|
--------------------------|--4-----4-----4-----4-----|
--0-----0-----0-----0-----|--------------------------|

  E.  S S E.  E.  S S E.     E.  S S E.  E.  S S E.
--------------------------|--------------------------|
--------------------------|--0-----0-----0-----0-----|
--------------------------|--------------------------|
--2-----2-----2-----2-----|--------------------------|

  E.  S S E.  E.  S S E.     E.  S S E.  E.  S S E.
--------------------------|--------------------------|
--------------------------|--------------------------|
--------------------------|--4-----4-----4-----4-----|
--0-----0-----0-----0-----|--------------------------|

  E.  S S E.  E.  S S E.     E.  S S E.  E.  S S E.
--------------------------|--------------------------|
--------------------------|--0-----0-----0-----0-----|
--------------------------|--------------------------|
--2-----2-----2-----2-----|--------------------------|

  E.  S S E.  E.  S S E.     E.  S S E.  E.  S S E.
--------------------------|--------------------------|
--------------------------|--------------------------|
--------------------------|--4-----4-----4-----4-----|
--0-----0-----0-----0-----|--------------------------|

  E.  S S E.  E.  S S E.     E.  S S E.  E.  S S E.
--------------------------|--------------------------|
--------------------------|--0-----0-----0-----0-----|
--------------------------|--------------------------|
--2-----2-----2-----2-----|--------------------------|

  E.  S S E.  E.  S S E.     E.  S S E.  E.  S S E.
--------------------------|--------------------------|
--------------------------|--------------------------|
--------------------------|--4-----4-----4-----4-----|
--0-----0-----0-----0-----|--------------------------|

  E.  S S E.  E.  S S E.     E.  S S E.  E.  S S E.
--------------------------|--------------------------|
--------------------------|--0-----0-----0-----0-----|
--------------------------|--------------------------|
--2-----2-----2-----2-----|--------------------------|

  E.  S S E.  E.  S S E.     E.  S S E.  E.  S S E.
--------------------------|----------------------------||
--------------------------|--------------------------*-||
--------------------------|--4-----4-----4-----4-----*-||
--0-----0-----0-----0-----|----------------------------||

Duration Legend
---------------
W - whole
H - half
Q - quarter
E - 8th
S - 16th
T - 32nd
X - 64th
. - note dotted
|-n-|  - n-tuplets

1 comment on Gerudo Valley

How am i supposed to play

How am i supposed to play that i dont catch that tab