Login or Register to remove this ad. | Advertise Here

Stone Tower Temple (Legend of Zelda: Majora's Mask) Guitar Tab

Submitted: Sep 30, 2007 by Laura (Last updated: Sep 12, 2009)

4.7
Average: 4.7 (20 votes)
Download | Listen
Game: Legend of Zelda: Majora's Mask
Composer(s): Koji Kondo, Toru Minegishi
Style: 2 or more instruments, Transcription
Series: Legend of Zelda

AutoScroll: Slow | Medium | Fast
Stone Tower Temple
LOZ: Majora's Mask
Tabbed By Laura

If there are not 3 guitars, just play with
one guitar in the order that each part is in.

1st guitar plays this throughout the song.

e---------------------------------------------
G---------------------------------------------
B---------------------------------------------
D--2-------3-------0-------2-------3-------2--
A---------------------------------------------
E---------------------------------------------

2nd guitar plays this throughout also.

e----------------------------------
G----------------------------------
B----------------------------------
D----2---2---2-3------2---2---2-0--
A--0---0---0--------0---0---0------
E----------------------------------

3rd guitar

e-----------------------------------------------
G-----------------------------------------------
B--2-5-4---0-2-5-4-2-0-----2-5-4---0-2-5-4-0-2--
D----------------------2------------------------
A-----------------------------------------------
E----------------------------------------------- x2

1st guitar only

e---------------------------------------------
G---------------------------------------------
B---------------------------------------------
D--2-------3-------0-------2-------3-------2--
A---------------------------------------------
E---------------------------------------------

3rd guitar

e-----------------------------------------------
G--5-5-3----0-5-3-1-0----5-5-3----1-0-0---------
B---------------------------------------2-------
D-----------------------------------------------
A-----------------------------------------------
E-----------------------------------------------

e-----------------------------------------------
G--5-5-3----5-3-1-0----5-6-5-3-1-0--------------
B----------------------------------2------------
D-----------------------------------------------
A-----------------------------------------------
E-----------------------------------------------

1st and 3rd guitar

e--0-5-8-7h8h7--3-0-5-8-7h8h7-
G-----------------------------
B-----------------------------
D-----------------------------
A-----------------------------
E----------------------------- x2

repeat

25 comments on Stone Tower Temple

e---------------------------


e-------------------------------------------------------
G-------------------------------------------------------
B--2-5-4h5h4---0-2-5-4-2-0-----2-5-4h5h4---0-2-5-4-0-2--
D--------------------------2----------------------------
A-------------------------------------------------------
E-------------------------------------------------------

It may sound better with a hammer on on this part

I think the hammer on sounds

I think the hammer on sounds best on the last part aswell, as 0-2-5-4h5p4-0-2

You want me to update it? By

You want me to update it? By the way, I fixed it so that it formats correctly. Put code tags around it to make it appear like that.

oh, sure. Thanks ^^

oh, sure. Thanks ^^

I love to play this with my

I love to play this with my friends, the second guitar part is by far the funnest. :P

Yeah, it is =D

Yeah, it is =D

what is 7h8h7 i dont know

what is 7h8h7 i dont know that chord

you got a problem its

you got a problem
its not
e-
G-
B-
D-
A-
E-

its

e-
B-
G-
D-
A-
E-

do first and secong guitar

do first and secong guitar keep playing no matter what or only when it says?

Zelda Addict- 7h8h7 isn't a

Zelda Addict-
7h8h7 isn't a chord, it means play the 7th fret, then hammer on to the 8th fret, then hammer off, or pull off, back to the 7th fret. Its just another way to write it in tab.

Zlda Addict- You must have

Zlda Addict-
You must have no knowledge of guitar if you know not of hammer ons and pull offs

He could be new you dont

He could be new you dont have to be a dick J Guitar

You can add another set of

You can add another set of notes to guitar one. I don't know how to work the tab thing, but it should be like this note-wise...

Upper Note: E / F / D / E / F / E
Lower Note: A / Bb / G / A / Bb / A

It is possible to do it. When Doing the Bb, you need to mute the 5th string, that's all.
( / was to seperate notes. I don't know how else to do it)

Wait, actually the above is

Wait, actually the above is wrong. Notes are

Upper Note: E/F/D/E/F/D
Lower Note: A/G/Bb/A/G/Bb

Sorry bout that

hey doe's anyone know the

hey doe's anyone know the tabs for stone temple on piano because i'm trying to learn it????

i was wondering doe's anyone

i was wondering doe's anyone know the stone Temple for piano because i've been trying to learn it and i want to learn it really badly. if you do email me
Shanghi31_747@hotmail.com

Yes, I was really new to

Yes, I was really new to guitar when I made all these tabs. put the hammer-ons where they need be, and switch around the whole E-A-D-G-B-E thing as well; most of my tabs are like that, ahaha.

The third guitar part plays

The third guitar part plays two different things. I think it sounds better like this. Sorry for the abismal formatting.

3rd guitar

e-------------------------------------------------------
G-------------------------------------------------------
B--2-5-4---0-2-5-4h5p4-2-0-----2-5-4---0-2-5-4h5p4-0-2--
D--------------------------2----------------------------
A-------------------------------------------------------
E-------------------------------------------------------

e-----------------------------------------------
G-----------------------------------------------
B--2-5-4h5p4---0-2-5-4h5p4-2-0-----2-5-4h5p4---0-2-5-4h5p4-0-2--
D------------------------------2------------------------
A-----------------------------------------------
E-----------------------------------------------

Yeah, there should be more

Yeah, there should be more hammer ons.

I made this a long time ago, and I would have included the hammer ons if I had made it recently.

This tab is awesome, sounds

This tab is awesome, sounds brill.

This is the way I

This is the way I play:
-----------------------------------------------------------
---1-0h1p0-------1-0h1h0---------1-0h1p0-------1-0h1p0-----
-2-----------0-2---------2-0---2-----------0-2---------0-2-
-----------------------------2-----------------------------
-----------------------------------------------------------
-----------------------------------------------------------

-5-8-7h8p7-----5-8-7h8p7-5-----5-8-7h8p7-----5-8-7h8p7---5-
-------------8-------------8-5-------------8-----------8---
-----------------------------------------------------------
-----------------------------------------------------------
-----------------------------------------------------------
-----------------------------------------------------------

-------------------------12-12-10---8-7-7-5-
-10-10-8-----10-8---------------------------
-----------9------10-9----------------------
--------------------------------------------
--------------------------------------------
--------------------------------------------

-12-12-10---12-10-8-7---12-13-12-10-8---7---5-
-10-10-8----10-8--7-5---10-11-10-8--10--5---5-
----------------------------------------------
----------------------------------------------
----------------------------------------------
----------------------------------------------

---5-8-7h8ph7-------5-8-7h8p7-
-5-------------8--5-----------
------------------------------
------------------------------
------------------------------
------------------------------

This tab is really good! I

5

This tab is really good! I think it's perfect but just for fun I think the last piece for guitar three could use an open E after the second (7h8h7) for substance.

I think it sounds pretty

I think it sounds pretty good. Nice job.

Awesome

5

This tab is good, its really fun playing with two other guys with guitar

First part

Hey, it sounds a bit better when you play the first little bit that carries on the whole song like this : D -2-2-2-2--3-3--0-0--2-2-2-2--3-3--2-2-

But maybe that's what the tab meant.