Login or Register to remove this ad. | Advertise Here

Sonata of Awakening (Legend of Zelda: Majora's Mask) Guitar Tab

Submitted: Sep 30, 2007 by archard

4.636365
Average: 4.6 (11 votes)
Download | Listen
Game: Legend of Zelda: Majora's Mask
Composer(s): Koji Kondo, Toru Minegishi
Style: Transcription
Series: Legend of Zelda

AutoScroll: Slow | Medium | Fast
Sonata of Awakening
The Legend of Zelda: Majora's Mask
Composed by Koji Kondo
Tabbed by Richard Schaefer (richard@gametabs.net)
8/3/06

e--10-7-10-7---------5--------------10-7-10-7---------5
B----------------3-------3------------------------3----
G------------------------------------------------------
D------------------------------------------------------
A------------------------------------------------------
E------------------------------------------------------

e--10-7-10-7---------5--------------5-----3---0---2
B----------------3-------3-------------------------
G--------------------------------------------------
D--------------------------------------------------
A--------------------------------------------------
E--------------------------------------------------

9 comments on Sonata of Awakening

Despite the fact I don't

Despite the fact I don't play this game a whole lot, I really like this song.

One of my favorite songs in

One of my favorite songs in the game. Something seems off in the tab.

Sounds Like Belowe Of Fire

Sounds Like Belowe Of Fire from Ocarina of Time

*bolero of fire

*bolero of fire

no is doesn't you zelda

no is doesn't you zelda wanabe freak!

its bolero of fire, and

its bolero of fire, and everytng is diffent :S

love majoras mask and all of

love majoras mask and all of its song this one stands out to me

REALLY NICE!! I love all

5

REALLY NICE!!
I love all zelda's versions and their songs!
Good job!

i would play MM more if my

5

i would play MM more if my disc wouldnt freeze....sigh, at least i can play tabs like this though good job