Login or Register to remove this ad. | Advertise Here

Skull Kid (Legend of Zelda: Majora's Mask) Guitar Tab

Submitted: May 01, 2008 by ness (Last updated: May 07, 2008)

5
Average: 5 (2 votes)
Download | Listen
Game: Legend of Zelda: Majora's Mask
Composer(s): Koji Kondo, Toru Minegishi
Style: Transcription
Series: Legend of Zelda

AutoScroll: Slow | Medium | Fast
e|-------------------------------------1-0--|
B|--2----1---------------2----1-------------|
G|-------------1-4-3---------------1--------|
D|------------------------------------------|
A|------------------------------------------|
E|------------------------------------------|

e|------------------------------------------------|
B|--2----1----------------------------------------|
G|------------1-4-3-------------------------------|
D|-------------------------3----2--5-6----5--8-7--|
A|------------------------------------------------|
E|------------------------------------------------|

e|-----------------------------|
B|-----------------------------|
G|--2----1--------2----1----4--|
D|-------------3---------------|
A|-----------------------------|
E|-----------------------------|

6 comments on Skull Kid

fine i can't say more

fine i can't say more

Sweet Skulll kid is my

Sweet Skulll kid is my favorite character in Majora's Mask

skull kid

skull kid would not scare me. lol

ooo

Hmmm i wonder can this song be better???

I couldnt remeber wich song

I couldnt remeber wich song was this, but i heard it in you tube by casuality when i was looking this tab XD

i though it was longer

i though it was longer